 0
SECTION
 2
HEADER
 0
ENDSEC
 0
SECTION
 2
TABLES
 0
TABLE
 2
LTYPE
 70
1
 0
ENDTAB
 0
TABLE
 2
LAYER
 70
1
 0
LAYER
 2
0
 70
0
 62
7
 6
CONTINUOUS
 0
ENDTAB
 0
TABLE
 2
STYLE
 70
1
 0
STYLE
 2
STANDARD
 70
0
 40
0.500000
 41
1.000000
 50
30.000000
 71
0
 42
0.500000
 3
txt
 4

 0
ENDTAB
 0
ENDSEC
 0
SECTION
 2
ENTITIES
 0
LINE
 8
0
 6
CONTINUOUS
 62
7
 10
-26.698657
 20
14.540343
 30
0.000000
 11
-23.398657
 21
14.540343
 31
0.000000
 0
LINE
 8
0
 6
CONTINUOUS
 62
7
 10
-13.248657
 20
16.240343
 30
0.000000
 11
-52.648659
 21
16.240343
 31
0.000000
 0
LINE
 8
0
 6
CONTINUOUS
 62
7
 10
-27.163884
 20
14.475447
 30
0.000000
 11
-26.698657
 21
14.540343
 31
0.000000
 0
LINE
 8
0
 6
CONTINUOUS
 62
7
 10
-27.723136
 20
14.196972
 30
0.000000
 11
-27.163884
 21
14.475447
 31
0.000000
 0
LINE
 8
0
 6
CONTINUOUS
 62
7
 10
-28.144027
 20
13.735278
 30
0.000000
 11
-27.723136
 21
14.196972
 31
0.000000
 0
LINE
 8
0
 6
CONTINUOUS
 62
7
 10
-28.369712
 20
13.152717
 30
0.000000
 11
-28.144027
 21
13.735278
 31
0.000000
 0
LINE
 8
0
 6
CONTINUOUS
 62
7
 10
-28.369712
 20
12.527969
 30
0.000000
 11
-28.369712
 21
13.152717
 31
0.000000
 0
LINE
 8
0
 6
CONTINUOUS
 62
7
 10
-28.144027
 20
11.945408
 30
0.000000
 11
-28.369712
 21
12.527969
 31
0.000000
 0
LINE
 8
0
 6
CONTINUOUS
 62
7
 10
-27.723136
 20
11.483714
 30
0.000000
 11
-28.144027
 21
11.945408
 31
0.000000
 0
LINE
 8
0
 6
CONTINUOUS
 62
7
 10
-27.163884
 20
11.205240
 30
0.000000
 11
-27.723136
 21
11.483714
 31
0.000000
 0
LINE
 8
0
 6
CONTINUOUS
 62
7
 10
-23.398657
 20
11.140343
 30
0.000000
 11
-26.698657
 21
11.140343
 31
0.000000
 0
LINE
 8
0
 6
CONTINUOUS
 62
7
 10
-26.698657
 20
11.140343
 30
0.000000
 11
-27.163884
 21
11.205240
 31
0.000000
 0
LINE
 8
0
 6
CONTINUOUS
 62
7
 10
-23.398657
 20
14.540343
 30
0.000000
 11
-22.933430
 21
14.475447
 31
0.000000
 0
LINE
 8
0
 6
CONTINUOUS
 62
7
 10
-22.933430
 20
14.475447
 30
0.000000
 11
-22.374178
 21
14.196972
 31
0.000000
 0
LINE
 8
0
 6
CONTINUOUS
 62
7
 10
-22.374178
 20
14.196972
 30
0.000000
 11
-21.953288
 21
13.735278
 31
0.000000
 0
LINE
 8
0
 6
CONTINUOUS
 62
7
 10
-21.953288
 20
13.735278
 30
0.000000
 11
-21.727603
 21
13.152717
 31
0.000000
 0
LINE
 8
0
 6
CONTINUOUS
 62
7
 10
-21.727603
 20
13.152717
 30
0.000000
 11
-21.727603
 21
12.527969
 31
0.000000
 0
LINE
 8
0
 6
CONTINUOUS
 62
7
 10
-21.727603
 20
12.527969
 30
0.000000
 11
-21.953288
 21
11.945408
 31
0.000000
 0
LINE
 8
0
 6
CONTINUOUS
 62
7
 10
-21.953288
 20
11.945408
 30
0.000000
 11
-22.374178
 21
11.483714
 31
0.000000
 0
LINE
 8
0
 6
CONTINUOUS
 62
7
 10
-22.374178
 20
11.483714
 30
0.000000
 11
-22.933430
 21
11.205240
 31
0.000000
 0
LINE
 8
0
 6
CONTINUOUS
 62
7
 10
-22.933430
 20
11.205240
 30
0.000000
 11
-23.398657
 21
11.140343
 31
0.000000
 0
LINE
 8
0
 6
CONTINUOUS
 62
7
 10
-13.248657
 20
6.240343
 30
0.000000
 11
-52.648659
 21
6.240343
 31
0.000000
 0
LINE
 8
0
 6
CONTINUOUS
 62
7
 10
-52.648659
 20
16.040343
 30
0.000000
 11
-52.648659
 21
6.440343
 31
0.000000
 0
LINE
 8
0
 6
CONTINUOUS
 62
7
 10
-52.648659
 20
6.240343
 30
0.000000
 11
-52.648659
 21
16.240343
 31
0.000000
 0
LINE
 8
0
 6
CONTINUOUS
 62
7
 10
-13.248657
 20
16.240343
 30
0.000000
 11
-13.248657
 21
6.240343
 31
0.000000
 0
LINE
 8
0
 6
CONTINUOUS
 62
7
 10
-52.698659
 20
6.140343
 30
0.000000
 11
-52.698659
 21
16.340343
 31
0.000000
 0
LINE
 8
0
 6
CONTINUOUS
 62
7
 10
-55.498659
 20
16.540343
 30
0.000000
 11
-55.498659
 21
5.940343
 31
0.000000
 0
LINE
 8
0
 6
CONTINUOUS
 62
7
 10
-13.198657
 20
6.140343
 30
0.000000
 11
-52.698659
 21
6.140343
 31
0.000000
 0
LINE
 8
0
 6
CONTINUOUS
 62
7
 10
-10.398657
 20
5.940343
 30
0.000000
 11
-10.398657
 21
16.540343
 31
0.000000
 0
LINE
 8
0
 6
CONTINUOUS
 62
7
 10
-52.698659
 20
16.340343
 30
0.000000
 11
-13.198657
 21
16.340343
 31
0.000000
 0
LINE
 8
0
 6
CONTINUOUS
 62
7
 10
-13.198657
 20
16.340343
 30
0.000000
 11
-13.198657
 21
6.140343
 31
0.000000
 0
LINE
 8
0
 6
CONTINUOUS
 62
7
 10
-10.398657
 20
5.940343
 30
0.000000
 11
-55.498659
 21
5.940343
 31
0.000000
 0
LINE
 8
0
 6
CONTINUOUS
 62
7
 10
-55.498659
 20
16.540343
 30
0.000000
 11
-10.398657
 21
16.540343
 31
0.000000
 0
LINE
 8
0
 6
CONTINUOUS
 62
7
 10
-14.898657
 20
16.340343
 30
0.000000
 11
-14.898657
 21
16.240343
 31
0.000000
 0
LINE
 8
0
 6
CONTINUOUS
 62
7
 10
-14.898657
 20
6.240343
 30
0.000000
 11
-14.898657
 21
6.140343
 31
0.000000
 0
LINE
 8
0
 6
CONTINUOUS
 62
7
 10
-50.998658
 20
16.340343
 30
0.000000
 11
-50.998658
 21
16.240343
 31
0.000000
 0
LINE
 8
0
 6
CONTINUOUS
 62
7
 10
-50.998658
 20
6.240343
 30
0.000000
 11
-50.998658
 21
6.140343
 31
0.000000
 0
ENDSEC
 0
EOF
