 0
SECTION
 2
HEADER
 0
ENDSEC
 0
SECTION
 2
TABLES
 0
TABLE
 2
LTYPE
 70
1
 0
ENDTAB
 0
TABLE
 2
LAYER
 70
1
 0
LAYER
 2
0
 70
0
 62
7
 6
CONTINUOUS
 0
ENDTAB
 0
TABLE
 2
STYLE
 70
1
 0
STYLE
 2
STANDARD
 70
0
 40
0.500000
 41
1.000000
 50
30.000000
 71
0
 42
0.500000
 3
txt
 4

 0
ENDTAB
 0
ENDSEC
 0
SECTION
 2
ENTITIES
 0
LINE
 8
0
 6
CONTINUOUS
 62
7
 10
-109.062154
 20
-84.999535
 30
0.000000
 11
-109.062154
 21
-85.799535
 31
0.000000
 0
LINE
 8
0
 6
CONTINUOUS
 62
7
 10
-44.062152
 20
-84.999535
 30
0.000000
 11
-44.062152
 21
-85.799535
 31
0.000000
 0
LINE
 8
0
 6
CONTINUOUS
 62
7
 10
-44.062152
 20
-85.799535
 30
0.000000
 11
-109.062154
 21
-85.799535
 31
0.000000
 0
LINE
 8
0
 6
CONTINUOUS
 62
7
 10
-86.062153
 20
-84.999535
 30
0.000000
 11
-104.462153
 21
-84.999535
 31
0.000000
 0
LINE
 8
0
 6
CONTINUOUS
 62
7
 10
-104.462153
 20
-84.999535
 30
0.000000
 11
-104.954747
 21
-84.999535
 31
0.000000
 0
LINE
 8
0
 6
CONTINUOUS
 62
7
 10
-104.954747
 20
-84.999535
 30
0.000000
 11
-105.546896
 21
-84.999535
 31
0.000000
 0
LINE
 8
0
 6
CONTINUOUS
 62
7
 10
-105.546896
 20
-84.999535
 30
0.000000
 11
-105.992544
 21
-84.999535
 31
0.000000
 0
LINE
 8
0
 6
CONTINUOUS
 62
7
 10
-105.992544
 20
-84.999535
 30
0.000000
 11
-106.231505
 21
-84.999535
 31
0.000000
 0
LINE
 8
0
 6
CONTINUOUS
 62
7
 10
-85.569560
 20
-84.999535
 30
0.000000
 11
-86.062153
 21
-84.999535
 31
0.000000
 0
LINE
 8
0
 6
CONTINUOUS
 62
7
 10
-109.062154
 20
-84.999535
 30
0.000000
 11
-44.062152
 21
-84.999535
 31
0.000000
 0
LINE
 8
0
 6
CONTINUOUS
 62
7
 10
-67.062153
 20
-84.999535
 30
0.000000
 11
-67.554746
 21
-84.999535
 31
0.000000
 0
LINE
 8
0
 6
CONTINUOUS
 62
7
 10
-67.554746
 20
-84.999535
 30
0.000000
 11
-68.146895
 21
-84.999535
 31
0.000000
 0
LINE
 8
0
 6
CONTINUOUS
 62
7
 10
-68.146895
 20
-84.999535
 30
0.000000
 11
-68.592543
 21
-84.999535
 31
0.000000
 0
LINE
 8
0
 6
CONTINUOUS
 62
7
 10
-68.592543
 20
-84.999535
 30
0.000000
 11
-68.831504
 21
-84.999535
 31
0.000000
 0
LINE
 8
0
 6
CONTINUOUS
 62
7
 10
-46.892801
 20
-84.999535
 30
0.000000
 11
-47.131761
 21
-84.999535
 31
0.000000
 0
LINE
 8
0
 6
CONTINUOUS
 62
7
 10
-47.131761
 20
-84.999535
 30
0.000000
 11
-47.577410
 21
-84.999535
 31
0.000000
 0
LINE
 8
0
 6
CONTINUOUS
 62
7
 10
-47.577410
 20
-84.999535
 30
0.000000
 11
-48.169559
 21
-84.999535
 31
0.000000
 0
LINE
 8
0
 6
CONTINUOUS
 62
7
 10
-48.169559
 20
-84.999535
 30
0.000000
 11
-48.662152
 21
-84.999535
 31
0.000000
 0
LINE
 8
0
 6
CONTINUOUS
 62
7
 10
-48.662152
 20
-84.999535
 30
0.000000
 11
-67.062153
 21
-84.999535
 31
0.000000
 0
LINE
 8
0
 6
CONTINUOUS
 62
7
 10
-84.977411
 20
-84.999535
 30
0.000000
 11
-85.569560
 21
-84.999535
 31
0.000000
 0
LINE
 8
0
 6
CONTINUOUS
 62
7
 10
-79.262153
 20
-84.999535
 30
0.000000
 11
-79.754746
 21
-84.999535
 31
0.000000
 0
LINE
 8
0
 6
CONTINUOUS
 62
7
 10
-84.531762
 20
-84.999535
 30
0.000000
 11
-84.977411
 21
-84.999535
 31
0.000000
 0
LINE
 8
0
 6
CONTINUOUS
 62
7
 10
-79.754746
 20
-84.999535
 30
0.000000
 11
-80.346895
 21
-84.999535
 31
0.000000
 0
LINE
 8
0
 6
CONTINUOUS
 62
7
 10
-84.292801
 20
-84.999535
 30
0.000000
 11
-84.531762
 21
-84.999535
 31
0.000000
 0
LINE
 8
0
 6
CONTINUOUS
 62
7
 10
-80.346895
 20
-84.999535
 30
0.000000
 11
-80.792544
 21
-84.999535
 31
0.000000
 0
LINE
 8
0
 6
CONTINUOUS
 62
7
 10
-80.792544
 20
-84.999535
 30
0.000000
 11
-81.031505
 21
-84.999535
 31
0.000000
 0
LINE
 8
0
 6
CONTINUOUS
 62
7
 10
-72.092801
 20
-84.999535
 30
0.000000
 11
-72.331762
 21
-84.999535
 31
0.000000
 0
LINE
 8
0
 6
CONTINUOUS
 62
7
 10
-72.331762
 20
-84.999535
 30
0.000000
 11
-72.777410
 21
-84.999535
 31
0.000000
 0
LINE
 8
0
 6
CONTINUOUS
 62
7
 10
-72.777410
 20
-84.999535
 30
0.000000
 11
-73.369559
 21
-84.999535
 31
0.000000
 0
LINE
 8
0
 6
CONTINUOUS
 62
7
 10
-73.369559
 20
-84.999535
 30
0.000000
 11
-73.862153
 21
-84.999535
 31
0.000000
 0
LINE
 8
0
 6
CONTINUOUS
 62
7
 10
-73.862153
 20
-84.999535
 30
0.000000
 11
-79.262153
 21
-84.999535
 31
0.000000
 0
LINE
 8
0
 6
CONTINUOUS
 62
7
 10
-75.651422
 20
-150.000001
 30
0.000000
 11
-75.601422
 21
-150.000001
 31
0.000000
 0
LINE
 8
0
 6
CONTINUOUS
 62
7
 10
-75.651422
 20
-150.000001
 30
0.000000
 11
-75.651422
 21
-149.950001
 31
0.000000
 0
LINE
 8
0
 6
CONTINUOUS
 62
7
 10
-75.651422
 20
-149.950001
 30
0.000000
 11
-75.601422
 21
-149.950001
 31
0.000000
 0
LINE
 8
0
 6
CONTINUOUS
 62
7
 10
-75.601422
 20
-150.000001
 30
0.000000
 11
-75.601422
 21
-149.950001
 31
0.000000
 0
LINE
 8
0
 6
CONTINUOUS
 62
7
 10
-46.464481
 20
-113.303100
 30
0.000000
 11
-45.564481
 21
-113.303100
 31
0.000000
 0
LINE
 8
0
 6
CONTINUOUS
 62
7
 10
-45.564481
 20
-138.300001
 30
0.000000
 11
-46.464481
 21
-138.300001
 31
0.000000
 0
LINE
 8
0
 6
CONTINUOUS
 62
7
 10
-44.162152
 20
-149.700001
 30
0.000000
 11
-48.462152
 21
-149.700001
 31
0.000000
 0
LINE
 8
0
 6
CONTINUOUS
 62
7
 10
-48.462152
 20
-150.000001
 30
0.000000
 11
-48.462152
 21
-149.700001
 31
0.000000
 0
LINE
 8
0
 6
CONTINUOUS
 62
7
 10
-44.162152
 20
-149.700001
 30
0.000000
 11
-44.162152
 21
-150.000001
 31
0.000000
 0
LINE
 8
0
 6
CONTINUOUS
 62
7
 10
-44.162152
 20
-111.633100
 30
0.000000
 11
-44.162152
 21
-149.700001
 31
0.000000
 0
LINE
 8
0
 6
CONTINUOUS
 62
7
 10
-47.812152
 20
-150.000001
 30
0.000000
 11
-48.462152
 21
-150.000001
 31
0.000000
 0
LINE
 8
0
 6
CONTINUOUS
 62
7
 10
-44.162152
 20
-150.000001
 30
0.000000
 11
-48.462152
 21
-150.000001
 31
0.000000
 0
LINE
 8
0
 6
CONTINUOUS
 62
7
 10
-44.462152
 20
-150.000001
 30
0.000000
 11
-47.812152
 21
-150.000001
 31
0.000000
 0
LINE
 8
0
 6
CONTINUOUS
 62
7
 10
-45.564481
 20
-113.303100
 30
0.000000
 11
-45.564481
 21
-116.170332
 31
0.000000
 0
LINE
 8
0
 6
CONTINUOUS
 62
7
 10
-45.564481
 20
-117.175768
 30
0.000000
 11
-45.564481
 21
-121.071603
 31
0.000000
 0
LINE
 8
0
 6
CONTINUOUS
 62
7
 10
-45.564481
 20
-122.076193
 30
0.000000
 11
-45.564481
 21
-138.300001
 31
0.000000
 0
LINE
 8
0
 6
CONTINUOUS
 62
7
 10
-46.464481
 20
-138.300001
 30
0.000000
 11
-46.464481
 21
-122.076193
 31
0.000000
 0
LINE
 8
0
 6
CONTINUOUS
 62
7
 10
-46.464481
 20
-121.071604
 30
0.000000
 11
-46.464481
 21
-117.174921
 31
0.000000
 0
LINE
 8
0
 6
CONTINUOUS
 62
7
 10
-46.464481
 20
-116.171178
 30
0.000000
 11
-46.464481
 21
-113.303100
 31
0.000000
 0
LINE
 8
0
 6
CONTINUOUS
 62
7
 10
-47.812152
 20
-149.700001
 30
0.000000
 11
-47.812152
 21
-125.026505
 31
0.000000
 0
LINE
 8
0
 6
CONTINUOUS
 62
7
 10
-47.462152
 20
-111.633100
 30
0.000000
 11
-44.162152
 21
-111.633100
 31
0.000000
 0
LINE
 8
0
 6
CONTINUOUS
 62
7
 10
-44.462152
 20
-111.633100
 30
0.000000
 11
-44.462152
 21
-111.633100
 31
0.000000
 0
LINE
 8
0
 6
CONTINUOUS
 62
7
 10
-44.462152
 20
-111.633100
 30
0.000000
 11
-47.462152
 21
-111.633100
 31
0.000000
 0
LINE
 8
0
 6
CONTINUOUS
 62
7
 10
-48.462152
 20
-150.000001
 30
0.000000
 11
-47.941756
 21
-150.000001
 31
0.000000
 0
LINE
 8
0
 6
CONTINUOUS
 62
7
 10
-47.941756
 20
-150.000001
 30
0.000000
 11
-44.462152
 21
-150.000001
 31
0.000000
 0
LINE
 8
0
 6
CONTINUOUS
 62
7
 10
-99.458984
 20
-103.604621
 30
0.000000
 11
-99.395191
 21
-103.828831
 31
0.000000
 0
LINE
 8
0
 6
CONTINUOUS
 62
7
 10
-99.562890
 20
-103.395950
 30
0.000000
 11
-99.458984
 21
-103.604621
 31
0.000000
 0
LINE
 8
0
 6
CONTINUOUS
 62
7
 10
-99.395191
 20
-103.828831
 30
0.000000
 11
-99.373682
 21
-104.060946
 31
0.000000
 0
LINE
 8
0
 6
CONTINUOUS
 62
7
 10
-101.900106
 20
-104.060946
 30
0.000000
 11
-101.878597
 21
-103.828831
 31
0.000000
 0
LINE
 8
0
 6
CONTINUOUS
 62
7
 10
-101.878597
 20
-103.828831
 30
0.000000
 11
-101.814804
 21
-103.604621
 31
0.000000
 0
LINE
 8
0
 6
CONTINUOUS
 62
7
 10
-101.814804
 20
-103.604621
 30
0.000000
 11
-101.710899
 21
-103.395950
 31
0.000000
 0
LINE
 8
0
 6
CONTINUOUS
 62
7
 10
-101.710899
 20
-103.395950
 30
0.000000
 11
-101.570419
 21
-103.209925
 31
0.000000
 0
LINE
 8
0
 6
CONTINUOUS
 62
7
 10
-101.570419
 20
-103.209925
 30
0.000000
 11
-101.398149
 21
-103.052881
 31
0.000000
 0
LINE
 8
0
 6
CONTINUOUS
 62
7
 10
-101.398149
 20
-103.052881
 30
0.000000
 11
-101.199956
 21
-102.930165
 31
0.000000
 0
LINE
 8
0
 6
CONTINUOUS
 62
7
 10
-101.199956
 20
-102.930165
 30
0.000000
 11
-100.982589
 21
-102.845956
 31
0.000000
 0
LINE
 8
0
 6
CONTINUOUS
 62
7
 10
-100.982589
 20
-102.845956
 30
0.000000
 11
-100.753449
 21
-102.803122
 31
0.000000
 0
LINE
 8
0
 6
CONTINUOUS
 62
7
 10
-100.753449
 20
-102.803122
 30
0.000000
 11
-100.520340
 21
-102.803122
 31
0.000000
 0
LINE
 8
0
 6
CONTINUOUS
 62
7
 10
-100.520340
 20
-102.803122
 30
0.000000
 11
-100.291200
 21
-102.845956
 31
0.000000
 0
LINE
 8
0
 6
CONTINUOUS
 62
7
 10
-100.291200
 20
-102.845956
 30
0.000000
 11
-100.073832
 21
-102.930165
 31
0.000000
 0
LINE
 8
0
 6
CONTINUOUS
 62
7
 10
-100.073832
 20
-102.930165
 30
0.000000
 11
-99.875639
 21
-103.052881
 31
0.000000
 0
LINE
 8
0
 6
CONTINUOUS
 62
7
 10
-99.875639
 20
-103.052881
 30
0.000000
 11
-99.703369
 21
-103.209925
 31
0.000000
 0
LINE
 8
0
 6
CONTINUOUS
 62
7
 10
-99.703369
 20
-103.209925
 30
0.000000
 11
-99.562890
 21
-103.395950
 31
0.000000
 0
LINE
 8
0
 6
CONTINUOUS
 62
7
 10
-99.373682
 20
-104.060946
 30
0.000000
 11
-99.395191
 21
-104.293060
 31
0.000000
 0
LINE
 8
0
 6
CONTINUOUS
 62
7
 10
-99.395191
 20
-104.293060
 30
0.000000
 11
-99.458984
 21
-104.517270
 31
0.000000
 0
LINE
 8
0
 6
CONTINUOUS
 62
7
 10
-99.458984
 20
-104.517270
 30
0.000000
 11
-99.562890
 21
-104.725941
 31
0.000000
 0
LINE
 8
0
 6
CONTINUOUS
 62
7
 10
-99.562890
 20
-104.725941
 30
0.000000
 11
-99.703369
 21
-104.911966
 31
0.000000
 0
LINE
 8
0
 6
CONTINUOUS
 62
7
 10
-99.703369
 20
-104.911966
 30
0.000000
 11
-99.875639
 21
-105.069011
 31
0.000000
 0
LINE
 8
0
 6
CONTINUOUS
 62
7
 10
-99.875639
 20
-105.069011
 30
0.000000
 11
-100.073832
 21
-105.191727
 31
0.000000
 0
LINE
 8
0
 6
CONTINUOUS
 62
7
 10
-100.073832
 20
-105.191727
 30
0.000000
 11
-100.291200
 21
-105.275935
 31
0.000000
 0
LINE
 8
0
 6
CONTINUOUS
 62
7
 10
-100.291200
 20
-105.275935
 30
0.000000
 11
-100.520340
 21
-105.318769
 31
0.000000
 0
LINE
 8
0
 6
CONTINUOUS
 62
7
 10
-100.520340
 20
-105.318769
 30
0.000000
 11
-100.753449
 21
-105.318769
 31
0.000000
 0
LINE
 8
0
 6
CONTINUOUS
 62
7
 10
-100.753449
 20
-105.318769
 30
0.000000
 11
-100.982589
 21
-105.275935
 31
0.000000
 0
LINE
 8
0
 6
CONTINUOUS
 62
7
 10
-100.982589
 20
-105.275935
 30
0.000000
 11
-101.199956
 21
-105.191727
 31
0.000000
 0
LINE
 8
0
 6
CONTINUOUS
 62
7
 10
-101.199956
 20
-105.191727
 30
0.000000
 11
-101.398149
 21
-105.069011
 31
0.000000
 0
LINE
 8
0
 6
CONTINUOUS
 62
7
 10
-101.398149
 20
-105.069011
 30
0.000000
 11
-101.570419
 21
-104.911966
 31
0.000000
 0
LINE
 8
0
 6
CONTINUOUS
 62
7
 10
-101.570419
 20
-104.911966
 30
0.000000
 11
-101.710899
 21
-104.725941
 31
0.000000
 0
LINE
 8
0
 6
CONTINUOUS
 62
7
 10
-101.710899
 20
-104.725941
 30
0.000000
 11
-101.814804
 21
-104.517270
 31
0.000000
 0
LINE
 8
0
 6
CONTINUOUS
 62
7
 10
-101.814804
 20
-104.517270
 30
0.000000
 11
-101.878597
 21
-104.293060
 31
0.000000
 0
LINE
 8
0
 6
CONTINUOUS
 62
7
 10
-101.878597
 20
-104.293060
 30
0.000000
 11
-101.900106
 21
-104.060946
 31
0.000000
 0
LINE
 8
0
 6
CONTINUOUS
 62
7
 10
-99.752964
 20
-105.576490
 30
0.000000
 11
-98.877964
 21
-104.060946
 31
0.000000
 0
LINE
 8
0
 6
CONTINUOUS
 62
7
 10
-102.377964
 20
-104.060946
 30
0.000000
 11
-101.502964
 21
-105.576490
 31
0.000000
 0
LINE
 8
0
 6
CONTINUOUS
 62
7
 10
-101.502964
 20
-102.545401
 30
0.000000
 11
-102.377964
 21
-104.060946
 31
0.000000
 0
LINE
 8
0
 6
CONTINUOUS
 62
7
 10
-99.752964
 20
-102.545401
 30
0.000000
 11
-101.502964
 21
-102.545401
 31
0.000000
 0
LINE
 8
0
 6
CONTINUOUS
 62
7
 10
-98.877964
 20
-104.060946
 30
0.000000
 11
-99.752964
 21
-102.545401
 31
0.000000
 0
LINE
 8
0
 6
CONTINUOUS
 62
7
 10
-101.502964
 20
-105.576490
 30
0.000000
 11
-99.752964
 21
-105.576490
 31
0.000000
 0
LINE
 8
0
 6
CONTINUOUS
 62
7
 10
-107.759825
 20
-113.303100
 30
0.000000
 11
-106.859825
 21
-113.303100
 31
0.000000
 0
LINE
 8
0
 6
CONTINUOUS
 62
7
 10
-106.859825
 20
-138.300001
 30
0.000000
 11
-107.759825
 21
-138.300001
 31
0.000000
 0
LINE
 8
0
 6
CONTINUOUS
 62
7
 10
-104.862153
 20
-149.700001
 30
0.000000
 11
-109.162154
 21
-149.700001
 31
0.000000
 0
LINE
 8
0
 6
CONTINUOUS
 62
7
 10
-104.862153
 20
-149.700001
 30
0.000000
 11
-104.862153
 21
-150.000001
 31
0.000000
 0
LINE
 8
0
 6
CONTINUOUS
 62
7
 10
-109.162154
 20
-150.000001
 30
0.000000
 11
-109.162154
 21
-149.700001
 31
0.000000
 0
LINE
 8
0
 6
CONTINUOUS
 62
7
 10
-109.162154
 20
-149.700001
 30
0.000000
 11
-109.162154
 21
-111.633100
 31
0.000000
 0
LINE
 8
0
 6
CONTINUOUS
 62
7
 10
-104.862153
 20
-150.000001
 30
0.000000
 11
-109.162154
 21
-150.000001
 31
0.000000
 0
LINE
 8
0
 6
CONTINUOUS
 62
7
 10
-108.855123
 20
-150.000001
 30
0.000000
 11
-108.862154
 21
-150.000001
 31
0.000000
 0
LINE
 8
0
 6
CONTINUOUS
 62
7
 10
-105.512154
 20
-150.000001
 30
0.000000
 11
-108.855123
 21
-150.000001
 31
0.000000
 0
LINE
 8
0
 6
CONTINUOUS
 62
7
 10
-104.862153
 20
-150.000001
 30
0.000000
 11
-105.512154
 21
-150.000001
 31
0.000000
 0
LINE
 8
0
 6
CONTINUOUS
 62
7
 10
-107.759825
 20
-138.300001
 30
0.000000
 11
-107.759825
 21
-122.076193
 31
0.000000
 0
LINE
 8
0
 6
CONTINUOUS
 62
7
 10
-107.759825
 20
-121.071604
 30
0.000000
 11
-107.759825
 21
-117.175767
 31
0.000000
 0
LINE
 8
0
 6
CONTINUOUS
 62
7
 10
-107.759825
 20
-116.170332
 30
0.000000
 11
-107.759825
 21
-113.303100
 31
0.000000
 0
LINE
 8
0
 6
CONTINUOUS
 62
7
 10
-106.859825
 20
-113.303100
 30
0.000000
 11
-106.859825
 21
-116.171178
 31
0.000000
 0
LINE
 8
0
 6
CONTINUOUS
 62
7
 10
-106.859825
 20
-117.174921
 30
0.000000
 11
-106.859825
 21
-121.071603
 31
0.000000
 0
LINE
 8
0
 6
CONTINUOUS
 62
7
 10
-106.859825
 20
-122.076193
 30
0.000000
 11
-106.859825
 21
-138.300001
 31
0.000000
 0
LINE
 8
0
 6
CONTINUOUS
 62
7
 10
-105.512154
 20
-129.509197
 30
0.000000
 11
-105.512154
 21
-149.700001
 31
0.000000
 0
LINE
 8
0
 6
CONTINUOUS
 62
7
 10
-109.162154
 20
-111.633100
 30
0.000000
 11
-105.862153
 21
-111.633100
 31
0.000000
 0
LINE
 8
0
 6
CONTINUOUS
 62
7
 10
-105.862154
 20
-111.633100
 30
0.000000
 11
-108.862154
 21
-111.633100
 31
0.000000
 0
LINE
 8
0
 6
CONTINUOUS
 62
7
 10
-108.862154
 20
-150.000001
 30
0.000000
 11
-105.382550
 21
-150.000001
 31
0.000000
 0
LINE
 8
0
 6
CONTINUOUS
 62
7
 10
-105.382550
 20
-150.000001
 30
0.000000
 11
-104.862153
 21
-150.000001
 31
0.000000
 0
LINE
 8
0
 6
CONTINUOUS
 62
7
 10
-107.629032
 20
-121.332844
 30
0.000000
 11
-107.667890
 21
-121.395603
 31
0.000000
 0
LINE
 8
0
 6
CONTINUOUS
 62
7
 10
-107.579303
 20
-121.278295
 30
0.000000
 11
-107.629032
 21
-121.332844
 31
0.000000
 0
LINE
 8
0
 6
CONTINUOUS
 62
7
 10
-107.520398
 20
-121.233811
 30
0.000000
 11
-107.579303
 21
-121.278295
 31
0.000000
 0
LINE
 8
0
 6
CONTINUOUS
 62
7
 10
-107.667890
 20
-121.395603
 30
0.000000
 11
-107.694555
 21
-121.464433
 31
0.000000
 0
LINE
 8
0
 6
CONTINUOUS
 62
7
 10
-107.694555
 20
-121.464433
 30
0.000000
 11
-107.708119
 21
-121.536991
 31
0.000000
 0
LINE
 8
0
 6
CONTINUOUS
 62
7
 10
-107.708119
 20
-121.536991
 30
0.000000
 11
-107.708119
 21
-121.610806
 31
0.000000
 0
LINE
 8
0
 6
CONTINUOUS
 62
7
 10
-107.708119
 20
-121.610806
 30
0.000000
 11
-107.694555
 21
-121.683364
 31
0.000000
 0
LINE
 8
0
 6
CONTINUOUS
 62
7
 10
-107.694555
 20
-121.683364
 30
0.000000
 11
-107.667890
 21
-121.752194
 31
0.000000
 0
LINE
 8
0
 6
CONTINUOUS
 62
7
 10
-107.667890
 20
-121.752194
 30
0.000000
 11
-107.629032
 21
-121.814952
 31
0.000000
 0
LINE
 8
0
 6
CONTINUOUS
 62
7
 10
-107.629032
 20
-121.814952
 30
0.000000
 11
-107.579303
 21
-121.869502
 31
0.000000
 0
LINE
 8
0
 6
CONTINUOUS
 62
7
 10
-107.579303
 20
-121.869502
 30
0.000000
 11
-107.520398
 21
-121.913985
 31
0.000000
 0
LINE
 8
0
 6
CONTINUOUS
 62
7
 10
-107.520398
 20
-121.913985
 30
0.000000
 11
-107.454322
 21
-121.946887
 31
0.000000
 0
LINE
 8
0
 6
CONTINUOUS
 62
7
 10
-107.454322
 20
-121.946887
 30
0.000000
 11
-107.383325
 21
-121.967088
 31
0.000000
 0
LINE
 8
0
 6
CONTINUOUS
 62
7
 10
-107.383325
 20
-121.967088
 30
0.000000
 11
-107.309825
 21
-121.973898
 31
0.000000
 0
LINE
 8
0
 6
CONTINUOUS
 62
7
 10
-107.309825
 20
-121.973898
 30
0.000000
 11
-107.236325
 21
-121.967088
 31
0.000000
 0
LINE
 8
0
 6
CONTINUOUS
 62
7
 10
-107.236325
 20
-121.967088
 30
0.000000
 11
-107.165328
 21
-121.946887
 31
0.000000
 0
LINE
 8
0
 6
CONTINUOUS
 62
7
 10
-107.165328
 20
-121.946887
 30
0.000000
 11
-107.099252
 21
-121.913985
 31
0.000000
 0
LINE
 8
0
 6
CONTINUOUS
 62
7
 10
-107.099252
 20
-121.913985
 30
0.000000
 11
-107.040347
 21
-121.869502
 31
0.000000
 0
LINE
 8
0
 6
CONTINUOUS
 62
7
 10
-107.040347
 20
-121.869502
 30
0.000000
 11
-106.990618
 21
-121.814952
 31
0.000000
 0
LINE
 8
0
 6
CONTINUOUS
 62
7
 10
-106.990618
 20
-121.814952
 30
0.000000
 11
-106.951760
 21
-121.752194
 31
0.000000
 0
LINE
 8
0
 6
CONTINUOUS
 62
7
 10
-106.951760
 20
-121.752194
 30
0.000000
 11
-106.925095
 21
-121.683364
 31
0.000000
 0
LINE
 8
0
 6
CONTINUOUS
 62
7
 10
-106.925095
 20
-121.683364
 30
0.000000
 11
-106.911531
 21
-121.610806
 31
0.000000
 0
LINE
 8
0
 6
CONTINUOUS
 62
7
 10
-106.911531
 20
-121.610806
 30
0.000000
 11
-106.911531
 21
-121.536991
 31
0.000000
 0
LINE
 8
0
 6
CONTINUOUS
 62
7
 10
-106.911531
 20
-121.536991
 30
0.000000
 11
-106.925095
 21
-121.464433
 31
0.000000
 0
LINE
 8
0
 6
CONTINUOUS
 62
7
 10
-106.925095
 20
-121.464433
 30
0.000000
 11
-106.951760
 21
-121.395603
 31
0.000000
 0
LINE
 8
0
 6
CONTINUOUS
 62
7
 10
-106.951760
 20
-121.395603
 30
0.000000
 11
-106.990618
 21
-121.332844
 31
0.000000
 0
LINE
 8
0
 6
CONTINUOUS
 62
7
 10
-107.454322
 20
-121.200909
 30
0.000000
 11
-107.520398
 21
-121.233811
 31
0.000000
 0
LINE
 8
0
 6
CONTINUOUS
 62
7
 10
-107.383325
 20
-121.180709
 30
0.000000
 11
-107.454322
 21
-121.200909
 31
0.000000
 0
LINE
 8
0
 6
CONTINUOUS
 62
7
 10
-107.309825
 20
-121.173898
 30
0.000000
 11
-107.383325
 21
-121.180709
 31
0.000000
 0
LINE
 8
0
 6
CONTINUOUS
 62
7
 10
-107.236325
 20
-121.180709
 30
0.000000
 11
-107.309825
 21
-121.173898
 31
0.000000
 0
LINE
 8
0
 6
CONTINUOUS
 62
7
 10
-107.165328
 20
-121.200909
 30
0.000000
 11
-107.236325
 21
-121.180709
 31
0.000000
 0
LINE
 8
0
 6
CONTINUOUS
 62
7
 10
-107.099252
 20
-121.233811
 30
0.000000
 11
-107.165328
 21
-121.200909
 31
0.000000
 0
LINE
 8
0
 6
CONTINUOUS
 62
7
 10
-107.040347
 20
-121.278295
 30
0.000000
 11
-107.099252
 21
-121.233811
 31
0.000000
 0
LINE
 8
0
 6
CONTINUOUS
 62
7
 10
-106.990618
 20
-121.332844
 30
0.000000
 11
-107.040347
 21
-121.278295
 31
0.000000
 0
LINE
 8
0
 6
CONTINUOUS
 62
7
 10
-107.309825
 20
-121.973913
 30
0.000000
 11
-107.383326
 21
-121.967102
 31
0.000000
 0
LINE
 8
0
 6
CONTINUOUS
 62
7
 10
-107.383326
 20
-121.967102
 30
0.000000
 11
-107.454324
 21
-121.946902
 31
0.000000
 0
LINE
 8
0
 6
CONTINUOUS
 62
7
 10
-107.454324
 20
-121.946902
 30
0.000000
 11
-107.520402
 21
-121.913999
 31
0.000000
 0
LINE
 8
0
 6
CONTINUOUS
 62
7
 10
-107.520402
 20
-121.913999
 30
0.000000
 11
-107.579308
 21
-121.869515
 31
0.000000
 0
LINE
 8
0
 6
CONTINUOUS
 62
7
 10
-107.579308
 20
-121.869515
 30
0.000000
 11
-107.629038
 21
-121.814964
 31
0.000000
 0
LINE
 8
0
 6
CONTINUOUS
 62
7
 10
-107.629038
 20
-121.814964
 30
0.000000
 11
-107.667897
 21
-121.752205
 31
0.000000
 0
LINE
 8
0
 6
CONTINUOUS
 62
7
 10
-107.667897
 20
-121.752205
 30
0.000000
 11
-107.694562
 21
-121.683373
 31
0.000000
 0
LINE
 8
0
 6
CONTINUOUS
 62
7
 10
-107.694562
 20
-121.683373
 30
0.000000
 11
-107.708126
 21
-121.610814
 31
0.000000
 0
LINE
 8
0
 6
CONTINUOUS
 62
7
 10
-107.708126
 20
-121.610814
 30
0.000000
 11
-107.708126
 21
-121.536998
 31
0.000000
 0
LINE
 8
0
 6
CONTINUOUS
 62
7
 10
-107.708126
 20
-121.536998
 30
0.000000
 11
-107.694562
 21
-121.464439
 31
0.000000
 0
LINE
 8
0
 6
CONTINUOUS
 62
7
 10
-107.694562
 20
-121.464439
 30
0.000000
 11
-107.667897
 21
-121.395607
 31
0.000000
 0
LINE
 8
0
 6
CONTINUOUS
 62
7
 10
-107.679825
 20
-120.933040
 30
0.000000
 11
-108.049825
 21
-121.573898
 31
0.000000
 0
LINE
 8
0
 6
CONTINUOUS
 62
7
 10
-107.667897
 20
-121.395607
 30
0.000000
 11
-107.629038
 21
-121.332847
 31
0.000000
 0
LINE
 8
0
 6
CONTINUOUS
 62
7
 10
-107.629038
 20
-121.332847
 30
0.000000
 11
-107.579308
 21
-121.278297
 31
0.000000
 0
LINE
 8
0
 6
CONTINUOUS
 62
7
 10
-107.579308
 20
-121.278297
 30
0.000000
 11
-107.520402
 21
-121.233813
 31
0.000000
 0
LINE
 8
0
 6
CONTINUOUS
 62
7
 10
-106.939825
 20
-120.933040
 30
0.000000
 11
-107.679825
 21
-120.933040
 31
0.000000
 0
LINE
 8
0
 6
CONTINUOUS
 62
7
 10
-107.099248
 20
-121.233813
 30
0.000000
 11
-107.040342
 21
-121.278297
 31
0.000000
 0
LINE
 8
0
 6
CONTINUOUS
 62
7
 10
-107.040342
 20
-121.278297
 30
0.000000
 11
-106.990612
 21
-121.332847
 31
0.000000
 0
LINE
 8
0
 6
CONTINUOUS
 62
7
 10
-106.990612
 20
-121.332847
 30
0.000000
 11
-106.951753
 21
-121.395607
 31
0.000000
 0
LINE
 8
0
 6
CONTINUOUS
 62
7
 10
-106.569825
 20
-121.573898
 30
0.000000
 11
-106.939825
 21
-120.933040
 31
0.000000
 0
LINE
 8
0
 6
CONTINUOUS
 62
7
 10
-106.951753
 20
-121.395607
 30
0.000000
 11
-106.925088
 21
-121.464439
 31
0.000000
 0
LINE
 8
0
 6
CONTINUOUS
 62
7
 10
-106.925088
 20
-121.464439
 30
0.000000
 11
-106.911524
 21
-121.536998
 31
0.000000
 0
LINE
 8
0
 6
CONTINUOUS
 62
7
 10
-106.911524
 20
-121.536998
 30
0.000000
 11
-106.911524
 21
-121.610814
 31
0.000000
 0
LINE
 8
0
 6
CONTINUOUS
 62
7
 10
-106.911524
 20
-121.610814
 30
0.000000
 11
-106.925088
 21
-121.683373
 31
0.000000
 0
LINE
 8
0
 6
CONTINUOUS
 62
7
 10
-106.925088
 20
-121.683373
 30
0.000000
 11
-106.951753
 21
-121.752205
 31
0.000000
 0
LINE
 8
0
 6
CONTINUOUS
 62
7
 10
-106.951753
 20
-121.752205
 30
0.000000
 11
-106.990612
 21
-121.814964
 31
0.000000
 0
LINE
 8
0
 6
CONTINUOUS
 62
7
 10
-106.990612
 20
-121.814964
 30
0.000000
 11
-107.040342
 21
-121.869515
 31
0.000000
 0
LINE
 8
0
 6
CONTINUOUS
 62
7
 10
-107.040342
 20
-121.869515
 30
0.000000
 11
-107.099248
 21
-121.913999
 31
0.000000
 0
LINE
 8
0
 6
CONTINUOUS
 62
7
 10
-107.099248
 20
-121.913999
 30
0.000000
 11
-107.165326
 21
-121.946902
 31
0.000000
 0
LINE
 8
0
 6
CONTINUOUS
 62
7
 10
-107.165326
 20
-121.946902
 30
0.000000
 11
-107.236324
 21
-121.967102
 31
0.000000
 0
LINE
 8
0
 6
CONTINUOUS
 62
7
 10
-107.236324
 20
-121.967102
 30
0.000000
 11
-107.309825
 21
-121.973913
 31
0.000000
 0
LINE
 8
0
 6
CONTINUOUS
 62
7
 10
-107.679825
 20
-122.214757
 30
0.000000
 11
-106.939825
 21
-122.214757
 31
0.000000
 0
LINE
 8
0
 6
CONTINUOUS
 62
7
 10
-108.049825
 20
-121.573898
 30
0.000000
 11
-107.679825
 21
-122.214757
 31
0.000000
 0
LINE
 8
0
 6
CONTINUOUS
 62
7
 10
-106.939825
 20
-122.214757
 30
0.000000
 11
-106.569825
 21
-121.573898
 31
0.000000
 0
LINE
 8
0
 6
CONTINUOUS
 62
7
 10
-107.309607
 20
-121.173919
 30
0.000000
 11
-107.237886
 21
-121.180564
 31
0.000000
 0
LINE
 8
0
 6
CONTINUOUS
 62
7
 10
-102.437536
 20
-104.758518
 30
0.000000
 11
-102.535056
 21
-104.415774
 31
0.000000
 0
LINE
 8
0
 6
CONTINUOUS
 62
7
 10
-102.278698
 20
-105.077508
 30
0.000000
 11
-102.437536
 21
-104.758518
 31
0.000000
 0
LINE
 8
0
 6
CONTINUOUS
 62
7
 10
-102.535056
 20
-104.415774
 30
0.000000
 11
-102.567935
 21
-104.060946
 31
0.000000
 0
LINE
 8
0
 6
CONTINUOUS
 62
7
 10
-102.567935
 20
-104.060946
 30
0.000000
 11
-102.535056
 21
-103.706118
 31
0.000000
 0
LINE
 8
0
 6
CONTINUOUS
 62
7
 10
-102.535056
 20
-103.706118
 30
0.000000
 11
-102.437536
 21
-103.363373
 31
0.000000
 0
LINE
 8
0
 6
CONTINUOUS
 62
7
 10
-102.437536
 20
-103.363373
 30
0.000000
 11
-102.278698
 21
-103.044384
 31
0.000000
 0
LINE
 8
0
 6
CONTINUOUS
 62
7
 10
-102.278698
 20
-103.044384
 30
0.000000
 11
-102.063951
 21
-102.760012
 31
0.000000
 0
LINE
 8
0
 6
CONTINUOUS
 62
7
 10
-102.063951
 20
-102.760012
 30
0.000000
 11
-101.800606
 21
-102.519942
 31
0.000000
 0
LINE
 8
0
 6
CONTINUOUS
 62
7
 10
-101.800606
 20
-102.519942
 30
0.000000
 11
-101.497633
 21
-102.332349
 31
0.000000
 0
LINE
 8
0
 6
CONTINUOUS
 62
7
 10
-101.497633
 20
-102.332349
 30
0.000000
 11
-101.165349
 21
-102.203621
 31
0.000000
 0
LINE
 8
0
 6
CONTINUOUS
 62
7
 10
-101.165349
 20
-102.203621
 30
0.000000
 11
-100.815068
 21
-102.138142
 31
0.000000
 0
LINE
 8
0
 6
CONTINUOUS
 62
7
 10
-100.815068
 20
-102.138142
 30
0.000000
 11
-100.458720
 21
-102.138142
 31
0.000000
 0
LINE
 8
0
 6
CONTINUOUS
 62
7
 10
-100.458720
 20
-102.138142
 30
0.000000
 11
-100.108440
 21
-102.203621
 31
0.000000
 0
LINE
 8
0
 6
CONTINUOUS
 62
7
 10
-100.108440
 20
-102.203621
 30
0.000000
 11
-99.776155
 21
-102.332349
 31
0.000000
 0
LINE
 8
0
 6
CONTINUOUS
 62
7
 10
-99.776155
 20
-102.332349
 30
0.000000
 11
-99.473182
 21
-102.519942
 31
0.000000
 0
LINE
 8
0
 6
CONTINUOUS
 62
7
 10
-99.473182
 20
-102.519942
 30
0.000000
 11
-99.209838
 21
-102.760012
 31
0.000000
 0
LINE
 8
0
 6
CONTINUOUS
 62
7
 10
-99.209838
 20
-102.760012
 30
0.000000
 11
-98.995090
 21
-103.044384
 31
0.000000
 0
LINE
 8
0
 6
CONTINUOUS
 62
7
 10
-98.995090
 20
-103.044384
 30
0.000000
 11
-98.836252
 21
-103.363373
 31
0.000000
 0
LINE
 8
0
 6
CONTINUOUS
 62
7
 10
-98.836252
 20
-103.363373
 30
0.000000
 11
-98.738733
 21
-103.706118
 31
0.000000
 0
LINE
 8
0
 6
CONTINUOUS
 62
7
 10
-98.738733
 20
-103.706118
 30
0.000000
 11
-98.705853
 21
-104.060946
 31
0.000000
 0
LINE
 8
0
 6
CONTINUOUS
 62
7
 10
-98.705853
 20
-104.060946
 30
0.000000
 11
-98.738733
 21
-104.415774
 31
0.000000
 0
LINE
 8
0
 6
CONTINUOUS
 62
7
 10
-98.738733
 20
-104.415774
 30
0.000000
 11
-98.836252
 21
-104.758518
 31
0.000000
 0
LINE
 8
0
 6
CONTINUOUS
 62
7
 10
-98.836252
 20
-104.758518
 30
0.000000
 11
-98.995090
 21
-105.077508
 31
0.000000
 0
LINE
 8
0
 6
CONTINUOUS
 62
7
 10
-98.995090
 20
-105.077508
 30
0.000000
 11
-99.209838
 21
-105.361880
 31
0.000000
 0
LINE
 8
0
 6
CONTINUOUS
 62
7
 10
-99.209838
 20
-105.361880
 30
0.000000
 11
-99.473182
 21
-105.601950
 31
0.000000
 0
LINE
 8
0
 6
CONTINUOUS
 62
7
 10
-99.473182
 20
-105.601950
 30
0.000000
 11
-99.776155
 21
-105.789543
 31
0.000000
 0
LINE
 8
0
 6
CONTINUOUS
 62
7
 10
-99.776155
 20
-105.789543
 30
0.000000
 11
-100.108440
 21
-105.918270
 31
0.000000
 0
LINE
 8
0
 6
CONTINUOUS
 62
7
 10
-100.108440
 20
-105.918270
 30
0.000000
 11
-100.458720
 21
-105.983749
 31
0.000000
 0
LINE
 8
0
 6
CONTINUOUS
 62
7
 10
-100.458720
 20
-105.983749
 30
0.000000
 11
-100.815068
 21
-105.983749
 31
0.000000
 0
LINE
 8
0
 6
CONTINUOUS
 62
7
 10
-100.815068
 20
-105.983749
 30
0.000000
 11
-101.165349
 21
-105.918270
 31
0.000000
 0
LINE
 8
0
 6
CONTINUOUS
 62
7
 10
-101.165349
 20
-105.918270
 30
0.000000
 11
-101.497633
 21
-105.789543
 31
0.000000
 0
LINE
 8
0
 6
CONTINUOUS
 62
7
 10
-101.497633
 20
-105.789543
 30
0.000000
 11
-101.800606
 21
-105.601950
 31
0.000000
 0
LINE
 8
0
 6
CONTINUOUS
 62
7
 10
-101.800606
 20
-105.601950
 30
0.000000
 11
-102.063951
 21
-105.361880
 31
0.000000
 0
LINE
 8
0
 6
CONTINUOUS
 62
7
 10
-102.063951
 20
-105.361880
 30
0.000000
 11
-102.278698
 21
-105.077508
 31
0.000000
 0
LINE
 8
0
 6
CONTINUOUS
 62
7
 10
-107.629276
 20
-116.431996
 30
0.000000
 11
-107.668135
 21
-116.494754
 31
0.000000
 0
LINE
 8
0
 6
CONTINUOUS
 62
7
 10
-107.579548
 20
-116.377446
 30
0.000000
 11
-107.629276
 21
-116.431996
 31
0.000000
 0
LINE
 8
0
 6
CONTINUOUS
 62
7
 10
-107.520642
 20
-116.332963
 30
0.000000
 11
-107.579548
 21
-116.377446
 31
0.000000
 0
LINE
 8
0
 6
CONTINUOUS
 62
7
 10
-107.668135
 20
-116.494754
 30
0.000000
 11
-107.694800
 21
-116.563584
 31
0.000000
 0
LINE
 8
0
 6
CONTINUOUS
 62
7
 10
-107.694800
 20
-116.563584
 30
0.000000
 11
-107.708363
 21
-116.636142
 31
0.000000
 0
LINE
 8
0
 6
CONTINUOUS
 62
7
 10
-107.708363
 20
-116.636142
 30
0.000000
 11
-107.708363
 21
-116.709957
 31
0.000000
 0
LINE
 8
0
 6
CONTINUOUS
 62
7
 10
-107.708363
 20
-116.709957
 30
0.000000
 11
-107.694800
 21
-116.782515
 31
0.000000
 0
LINE
 8
0
 6
CONTINUOUS
 62
7
 10
-107.694800
 20
-116.782515
 30
0.000000
 11
-107.668135
 21
-116.851345
 31
0.000000
 0
LINE
 8
0
 6
CONTINUOUS
 62
7
 10
-107.668135
 20
-116.851345
 30
0.000000
 11
-107.629276
 21
-116.914103
 31
0.000000
 0
LINE
 8
0
 6
CONTINUOUS
 62
7
 10
-107.629276
 20
-116.914103
 30
0.000000
 11
-107.579548
 21
-116.968653
 31
0.000000
 0
LINE
 8
0
 6
CONTINUOUS
 62
7
 10
-107.579548
 20
-116.968653
 30
0.000000
 11
-107.520642
 21
-117.013136
 31
0.000000
 0
LINE
 8
0
 6
CONTINUOUS
 62
7
 10
-107.520642
 20
-117.013136
 30
0.000000
 11
-107.454566
 21
-117.046039
 31
0.000000
 0
LINE
 8
0
 6
CONTINUOUS
 62
7
 10
-107.454566
 20
-117.046039
 30
0.000000
 11
-107.383569
 21
-117.066239
 31
0.000000
 0
LINE
 8
0
 6
CONTINUOUS
 62
7
 10
-107.383569
 20
-117.066239
 30
0.000000
 11
-107.310069
 21
-117.073050
 31
0.000000
 0
LINE
 8
0
 6
CONTINUOUS
 62
7
 10
-107.310069
 20
-117.073050
 30
0.000000
 11
-107.236570
 21
-117.066239
 31
0.000000
 0
LINE
 8
0
 6
CONTINUOUS
 62
7
 10
-107.236570
 20
-117.066239
 30
0.000000
 11
-107.165573
 21
-117.046039
 31
0.000000
 0
LINE
 8
0
 6
CONTINUOUS
 62
7
 10
-107.165573
 20
-117.046039
 30
0.000000
 11
-107.099497
 21
-117.013136
 31
0.000000
 0
LINE
 8
0
 6
CONTINUOUS
 62
7
 10
-107.099497
 20
-117.013136
 30
0.000000
 11
-107.040591
 21
-116.968653
 31
0.000000
 0
LINE
 8
0
 6
CONTINUOUS
 62
7
 10
-107.040591
 20
-116.968653
 30
0.000000
 11
-106.990863
 21
-116.914103
 31
0.000000
 0
LINE
 8
0
 6
CONTINUOUS
 62
7
 10
-106.990863
 20
-116.914103
 30
0.000000
 11
-106.952004
 21
-116.851345
 31
0.000000
 0
LINE
 8
0
 6
CONTINUOUS
 62
7
 10
-106.952004
 20
-116.851345
 30
0.000000
 11
-106.925339
 21
-116.782515
 31
0.000000
 0
LINE
 8
0
 6
CONTINUOUS
 62
7
 10
-106.925339
 20
-116.782515
 30
0.000000
 11
-106.911776
 21
-116.709957
 31
0.000000
 0
LINE
 8
0
 6
CONTINUOUS
 62
7
 10
-106.911776
 20
-116.709957
 30
0.000000
 11
-106.911776
 21
-116.636142
 31
0.000000
 0
LINE
 8
0
 6
CONTINUOUS
 62
7
 10
-106.911776
 20
-116.636142
 30
0.000000
 11
-106.925339
 21
-116.563584
 31
0.000000
 0
LINE
 8
0
 6
CONTINUOUS
 62
7
 10
-106.925339
 20
-116.563584
 30
0.000000
 11
-106.952004
 21
-116.494754
 31
0.000000
 0
LINE
 8
0
 6
CONTINUOUS
 62
7
 10
-106.952004
 20
-116.494754
 30
0.000000
 11
-106.990863
 21
-116.431996
 31
0.000000
 0
LINE
 8
0
 6
CONTINUOUS
 62
7
 10
-107.454566
 20
-116.300061
 30
0.000000
 11
-107.520642
 21
-116.332963
 31
0.000000
 0
LINE
 8
0
 6
CONTINUOUS
 62
7
 10
-107.383569
 20
-116.279860
 30
0.000000
 11
-107.454566
 21
-116.300061
 31
0.000000
 0
LINE
 8
0
 6
CONTINUOUS
 62
7
 10
-107.310069
 20
-116.273050
 30
0.000000
 11
-107.383569
 21
-116.279860
 31
0.000000
 0
LINE
 8
0
 6
CONTINUOUS
 62
7
 10
-107.236570
 20
-116.279860
 30
0.000000
 11
-107.310069
 21
-116.273050
 31
0.000000
 0
LINE
 8
0
 6
CONTINUOUS
 62
7
 10
-107.165573
 20
-116.300061
 30
0.000000
 11
-107.236570
 21
-116.279860
 31
0.000000
 0
LINE
 8
0
 6
CONTINUOUS
 62
7
 10
-107.099497
 20
-116.332963
 30
0.000000
 11
-107.165573
 21
-116.300061
 31
0.000000
 0
LINE
 8
0
 6
CONTINUOUS
 62
7
 10
-107.040591
 20
-116.377446
 30
0.000000
 11
-107.099497
 21
-116.332963
 31
0.000000
 0
LINE
 8
0
 6
CONTINUOUS
 62
7
 10
-106.990863
 20
-116.431996
 30
0.000000
 11
-107.040591
 21
-116.377446
 31
0.000000
 0
LINE
 8
0
 6
CONTINUOUS
 62
7
 10
-107.310069
 20
-117.073065
 30
0.000000
 11
-107.383571
 21
-117.066254
 31
0.000000
 0
LINE
 8
0
 6
CONTINUOUS
 62
7
 10
-107.383571
 20
-117.066254
 30
0.000000
 11
-107.454569
 21
-117.046053
 31
0.000000
 0
LINE
 8
0
 6
CONTINUOUS
 62
7
 10
-107.454569
 20
-117.046053
 30
0.000000
 11
-107.520646
 21
-117.013150
 31
0.000000
 0
LINE
 8
0
 6
CONTINUOUS
 62
7
 10
-107.520646
 20
-117.013150
 30
0.000000
 11
-107.579553
 21
-116.968666
 31
0.000000
 0
LINE
 8
0
 6
CONTINUOUS
 62
7
 10
-107.579553
 20
-116.968666
 30
0.000000
 11
-107.629282
 21
-116.914116
 31
0.000000
 0
LINE
 8
0
 6
CONTINUOUS
 62
7
 10
-107.629282
 20
-116.914116
 30
0.000000
 11
-107.668141
 21
-116.851356
 31
0.000000
 0
LINE
 8
0
 6
CONTINUOUS
 62
7
 10
-107.668141
 20
-116.851356
 30
0.000000
 11
-107.694807
 21
-116.782524
 31
0.000000
 0
LINE
 8
0
 6
CONTINUOUS
 62
7
 10
-107.694807
 20
-116.782524
 30
0.000000
 11
-107.708371
 21
-116.709965
 31
0.000000
 0
LINE
 8
0
 6
CONTINUOUS
 62
7
 10
-107.708371
 20
-116.709965
 30
0.000000
 11
-107.708371
 21
-116.636149
 31
0.000000
 0
LINE
 8
0
 6
CONTINUOUS
 62
7
 10
-107.708371
 20
-116.636149
 30
0.000000
 11
-107.694807
 21
-116.563590
 31
0.000000
 0
LINE
 8
0
 6
CONTINUOUS
 62
7
 10
-107.694807
 20
-116.563590
 30
0.000000
 11
-107.668141
 21
-116.494758
 31
0.000000
 0
LINE
 8
0
 6
CONTINUOUS
 62
7
 10
-107.680069
 20
-116.032191
 30
0.000000
 11
-108.050069
 21
-116.673050
 31
0.000000
 0
LINE
 8
0
 6
CONTINUOUS
 62
7
 10
-107.668141
 20
-116.494758
 30
0.000000
 11
-107.629282
 21
-116.431999
 31
0.000000
 0
LINE
 8
0
 6
CONTINUOUS
 62
7
 10
-107.629282
 20
-116.431999
 30
0.000000
 11
-107.579553
 21
-116.377448
 31
0.000000
 0
LINE
 8
0
 6
CONTINUOUS
 62
7
 10
-107.579553
 20
-116.377448
 30
0.000000
 11
-107.520646
 21
-116.332964
 31
0.000000
 0
LINE
 8
0
 6
CONTINUOUS
 62
7
 10
-106.940069
 20
-116.032191
 30
0.000000
 11
-107.680069
 21
-116.032191
 31
0.000000
 0
LINE
 8
0
 6
CONTINUOUS
 62
7
 10
-107.099493
 20
-116.332964
 30
0.000000
 11
-107.040586
 21
-116.377448
 31
0.000000
 0
LINE
 8
0
 6
CONTINUOUS
 62
7
 10
-107.040586
 20
-116.377448
 30
0.000000
 11
-106.990857
 21
-116.431999
 31
0.000000
 0
LINE
 8
0
 6
CONTINUOUS
 62
7
 10
-106.990857
 20
-116.431999
 30
0.000000
 11
-106.951997
 21
-116.494758
 31
0.000000
 0
LINE
 8
0
 6
CONTINUOUS
 62
7
 10
-106.570069
 20
-116.673050
 30
0.000000
 11
-106.940069
 21
-116.032191
 31
0.000000
 0
LINE
 8
0
 6
CONTINUOUS
 62
7
 10
-106.951997
 20
-116.494758
 30
0.000000
 11
-106.925332
 21
-116.563590
 31
0.000000
 0
LINE
 8
0
 6
CONTINUOUS
 62
7
 10
-106.925332
 20
-116.563590
 30
0.000000
 11
-106.911768
 21
-116.636149
 31
0.000000
 0
LINE
 8
0
 6
CONTINUOUS
 62
7
 10
-106.911768
 20
-116.636149
 30
0.000000
 11
-106.911768
 21
-116.709965
 31
0.000000
 0
LINE
 8
0
 6
CONTINUOUS
 62
7
 10
-106.911768
 20
-116.709965
 30
0.000000
 11
-106.925332
 21
-116.782524
 31
0.000000
 0
LINE
 8
0
 6
CONTINUOUS
 62
7
 10
-106.925332
 20
-116.782524
 30
0.000000
 11
-106.951997
 21
-116.851356
 31
0.000000
 0
LINE
 8
0
 6
CONTINUOUS
 62
7
 10
-106.951997
 20
-116.851356
 30
0.000000
 11
-106.990857
 21
-116.914116
 31
0.000000
 0
LINE
 8
0
 6
CONTINUOUS
 62
7
 10
-106.990857
 20
-116.914116
 30
0.000000
 11
-107.040586
 21
-116.968666
 31
0.000000
 0
LINE
 8
0
 6
CONTINUOUS
 62
7
 10
-107.040586
 20
-116.968666
 30
0.000000
 11
-107.099493
 21
-117.013150
 31
0.000000
 0
LINE
 8
0
 6
CONTINUOUS
 62
7
 10
-107.099493
 20
-117.013150
 30
0.000000
 11
-107.165570
 21
-117.046053
 31
0.000000
 0
LINE
 8
0
 6
CONTINUOUS
 62
7
 10
-107.165570
 20
-117.046053
 30
0.000000
 11
-107.236568
 21
-117.066254
 31
0.000000
 0
LINE
 8
0
 6
CONTINUOUS
 62
7
 10
-107.236568
 20
-117.066254
 30
0.000000
 11
-107.310069
 21
-117.073065
 31
0.000000
 0
LINE
 8
0
 6
CONTINUOUS
 62
7
 10
-107.680069
 20
-117.313908
 30
0.000000
 11
-106.940069
 21
-117.313908
 31
0.000000
 0
LINE
 8
0
 6
CONTINUOUS
 62
7
 10
-108.050069
 20
-116.673050
 30
0.000000
 11
-107.680069
 21
-117.313908
 31
0.000000
 0
LINE
 8
0
 6
CONTINUOUS
 62
7
 10
-106.940069
 20
-117.313908
 30
0.000000
 11
-106.570069
 21
-116.673050
 31
0.000000
 0
LINE
 8
0
 6
CONTINUOUS
 62
7
 10
-107.310069
 20
-116.273050
 30
0.000000
 11
-107.237710
 21
-116.279755
 31
0.000000
 0
LINE
 8
0
 6
CONTINUOUS
 62
7
 10
-45.967087
 20
-86.299535
 30
0.000000
 11
-45.749611
 21
-86.299535
 31
0.000000
 0
LINE
 8
0
 6
CONTINUOUS
 62
7
 10
-46.163202
 20
-86.299535
 30
0.000000
 11
-45.967087
 21
-86.299535
 31
0.000000
 0
LINE
 8
0
 6
CONTINUOUS
 62
7
 10
-46.331277
 20
-86.299535
 30
0.000000
 11
-46.163202
 21
-86.299535
 31
0.000000
 0
LINE
 8
0
 6
CONTINUOUS
 62
7
 10
-46.465589
 20
-86.299535
 30
0.000000
 11
-46.331277
 21
-86.299535
 31
0.000000
 0
LINE
 8
0
 6
CONTINUOUS
 62
7
 10
-44.429013
 20
-86.299535
 30
0.000000
 11
-44.277067
 21
-86.299535
 31
0.000000
 0
LINE
 8
0
 6
CONTINUOUS
 62
7
 10
-44.277067
 20
-86.299535
 30
0.000000
 11
-44.161311
 21
-86.299535
 31
0.000000
 0
LINE
 8
0
 6
CONTINUOUS
 62
7
 10
-46.561564
 20
-86.299535
 30
0.000000
 11
-46.465589
 21
-86.299535
 31
0.000000
 0
LINE
 8
0
 6
CONTINUOUS
 62
7
 10
-44.161311
 20
-86.299535
 30
0.000000
 11
-44.085687
 21
-86.299535
 31
0.000000
 0
LINE
 8
0
 6
CONTINUOUS
 62
7
 10
-44.085687
 20
-86.299535
 30
0.000000
 11
-44.052771
 21
-86.299535
 31
0.000000
 0
LINE
 8
0
 6
CONTINUOUS
 62
7
 10
-44.052771
 20
-86.299535
 30
0.000000
 11
-44.051379
 21
-86.299535
 31
0.000000
 0
LINE
 8
0
 6
CONTINUOUS
 62
7
 10
-46.628237
 20
-86.299535
 30
0.000000
 11
-46.615933
 21
-86.299535
 31
0.000000
 0
LINE
 8
0
 6
CONTINUOUS
 62
7
 10
-46.615933
 20
-86.299535
 30
0.000000
 11
-46.561564
 21
-86.299535
 31
0.000000
 0
LINE
 8
0
 6
CONTINUOUS
 62
7
 10
-45.749611
 20
-86.299535
 30
0.000000
 11
-45.666083
 21
-86.299535
 31
0.000000
 0
LINE
 8
0
 6
CONTINUOUS
 62
7
 10
-44.467707
 20
-86.299535
 30
0.000000
 11
-44.429013
 21
-86.299535
 31
0.000000
 0
LINE
 8
0
 6
CONTINUOUS
 62
7
 10
-44.051379
 20
-86.499535
 30
0.000000
 11
-44.051379
 21
-86.299535
 31
0.000000
 0
LINE
 8
0
 6
CONTINUOUS
 62
7
 10
-109.062154
 20
-86.499535
 30
0.000000
 11
-109.062154
 21
-86.299535
 31
0.000000
 0
LINE
 8
0
 6
CONTINUOUS
 62
7
 10
-44.051379
 20
-86.499535
 30
0.000000
 11
-109.062154
 21
-86.499535
 31
0.000000
 0
LINE
 8
0
 6
CONTINUOUS
 62
7
 10
-46.606300
 20
-86.299535
 30
0.000000
 11
-46.628237
 21
-86.299535
 31
0.000000
 0
LINE
 8
0
 6
CONTINUOUS
 62
7
 10
-44.051379
 20
-86.299535
 30
0.000000
 11
-44.073317
 21
-86.299535
 31
0.000000
 0
LINE
 8
0
 6
CONTINUOUS
 62
7
 10
-46.541233
 20
-86.299535
 30
0.000000
 11
-46.606300
 21
-86.299535
 31
0.000000
 0
LINE
 8
0
 6
CONTINUOUS
 62
7
 10
-44.073317
 20
-86.299535
 30
0.000000
 11
-44.138384
 21
-86.299535
 31
0.000000
 0
LINE
 8
0
 6
CONTINUOUS
 62
7
 10
-46.435253
 20
-86.299535
 30
0.000000
 11
-46.541233
 21
-86.299535
 31
0.000000
 0
LINE
 8
0
 6
CONTINUOUS
 62
7
 10
-44.138384
 20
-86.299535
 30
0.000000
 11
-44.244364
 21
-86.299535
 31
0.000000
 0
LINE
 8
0
 6
CONTINUOUS
 62
7
 10
-44.244364
 20
-86.299535
 30
0.000000
 11
-44.387648
 21
-86.299535
 31
0.000000
 0
LINE
 8
0
 6
CONTINUOUS
 62
7
 10
-45.692404
 20
-86.299535
 30
0.000000
 11
-45.914111
 21
-86.299535
 31
0.000000
 0
LINE
 8
0
 6
CONTINUOUS
 62
7
 10
-45.914111
 20
-86.299535
 30
0.000000
 11
-46.116260
 21
-86.299535
 31
0.000000
 0
LINE
 8
0
 6
CONTINUOUS
 62
7
 10
-46.116260
 20
-86.299535
 30
0.000000
 11
-46.291969
 21
-86.299535
 31
0.000000
 0
LINE
 8
0
 6
CONTINUOUS
 62
7
 10
-46.291969
 20
-86.299535
 30
0.000000
 11
-46.435253
 21
-86.299535
 31
0.000000
 0
LINE
 8
0
 6
CONTINUOUS
 62
7
 10
-46.628237
 20
-86.299535
 30
0.000000
 11
-74.924042
 21
-86.299535
 31
0.000000
 0
LINE
 8
0
 6
CONTINUOUS
 62
7
 10
-77.889042
 20
-86.299535
 30
0.000000
 11
-77.931064
 21
-86.299535
 31
0.000000
 0
LINE
 8
0
 6
CONTINUOUS
 62
7
 10
-109.062154
 20
-86.299535
 30
0.000000
 11
-44.051379
 21
-86.299535
 31
0.000000
 0
LINE
 8
0
 6
CONTINUOUS
 62
7
 10
-77.931064
 20
-86.299535
 30
0.000000
 11
-106.319239
 21
-86.299535
 31
0.000000
 0
LINE
 8
0
 6
CONTINUOUS
 62
7
 10
-106.319239
 20
-86.299535
 30
0.000000
 11
-106.342591
 21
-86.299535
 31
0.000000
 0
LINE
 8
0
 6
CONTINUOUS
 62
7
 10
-106.342591
 20
-86.299535
 30
0.000000
 11
-106.411850
 21
-86.299535
 31
0.000000
 0
LINE
 8
0
 6
CONTINUOUS
 62
7
 10
-106.411850
 20
-86.299535
 30
0.000000
 11
-106.524660
 21
-86.299535
 31
0.000000
 0
LINE
 8
0
 6
CONTINUOUS
 62
7
 10
-106.524660
 20
-86.299535
 30
0.000000
 11
-106.677177
 21
-86.299535
 31
0.000000
 0
LINE
 8
0
 6
CONTINUOUS
 62
7
 10
-106.677177
 20
-86.299535
 30
0.000000
 11
-106.864209
 21
-86.299535
 31
0.000000
 0
LINE
 8
0
 6
CONTINUOUS
 62
7
 10
-106.864209
 20
-86.299535
 30
0.000000
 11
-107.079385
 21
-86.299535
 31
0.000000
 0
LINE
 8
0
 6
CONTINUOUS
 62
7
 10
-107.079385
 20
-86.299535
 30
0.000000
 11
-107.315379
 21
-86.299535
 31
0.000000
 0
LINE
 8
0
 6
CONTINUOUS
 62
7
 10
-74.924042
 20
-86.299535
 30
0.000000
 11
-74.966063
 21
-86.299535
 31
0.000000
 0
LINE
 8
0
 6
CONTINUOUS
 62
7
 10
-77.801612
 20
-86.299535
 30
0.000000
 11
-77.889042
 21
-86.299535
 31
0.000000
 0
LINE
 8
0
 6
CONTINUOUS
 62
7
 10
-74.966063
 20
-86.299535
 30
0.000000
 11
-75.053493
 21
-86.299535
 31
0.000000
 0
LINE
 8
0
 6
CONTINUOUS
 62
7
 10
-75.053493
 20
-86.299535
 30
0.000000
 11
-75.183615
 21
-86.299535
 31
0.000000
 0
LINE
 8
0
 6
CONTINUOUS
 62
7
 10
-75.183615
 20
-86.299535
 30
0.000000
 11
-75.352385
 21
-86.299535
 31
0.000000
 0
LINE
 8
0
 6
CONTINUOUS
 62
7
 10
-75.352385
 20
-86.299535
 30
0.000000
 11
-75.554561
 21
-86.299535
 31
0.000000
 0
LINE
 8
0
 6
CONTINUOUS
 62
7
 10
-75.554561
 20
-86.299535
 30
0.000000
 11
-75.783861
 21
-86.299535
 31
0.000000
 0
LINE
 8
0
 6
CONTINUOUS
 62
7
 10
-77.300544
 20
-86.299535
 30
0.000000
 11
-77.502720
 21
-86.299535
 31
0.000000
 0
LINE
 8
0
 6
CONTINUOUS
 62
7
 10
-77.502720
 20
-86.299535
 30
0.000000
 11
-77.671491
 21
-86.299535
 31
0.000000
 0
LINE
 8
0
 6
CONTINUOUS
 62
7
 10
-77.671491
 20
-86.299535
 30
0.000000
 11
-77.801612
 21
-86.299535
 31
0.000000
 0
LINE
 8
0
 6
CONTINUOUS
 62
7
 10
-108.704215
 20
-86.299535
 30
0.000000
 11
-108.856733
 21
-86.299535
 31
0.000000
 0
LINE
 8
0
 6
CONTINUOUS
 62
7
 10
-108.856733
 20
-86.299535
 30
0.000000
 11
-108.969542
 21
-86.299535
 31
0.000000
 0
LINE
 8
0
 6
CONTINUOUS
 62
7
 10
-108.969542
 20
-86.299535
 30
0.000000
 11
-109.038802
 21
-86.299535
 31
0.000000
 0
LINE
 8
0
 6
CONTINUOUS
 62
7
 10
-109.038802
 20
-86.299535
 30
0.000000
 11
-109.062154
 21
-86.299535
 31
0.000000
 0
LINE
 8
0
 6
CONTINUOUS
 62
7
 10
-44.387648
 20
-86.299535
 30
0.000000
 11
-44.467707
 21
-86.299535
 31
0.000000
 0
LINE
 8
0
 6
CONTINUOUS
 62
7
 10
-45.666083
 20
-86.299535
 30
0.000000
 11
-45.692404
 21
-86.299535
 31
0.000000
 0
LINE
 8
0
 6
CONTINUOUS
 62
7
 10
-107.315379
 20
-86.299535
 30
0.000000
 11
-107.468355
 21
-86.299535
 31
0.000000
 0
LINE
 8
0
 6
CONTINUOUS
 62
7
 10
-75.783861
 20
-86.299535
 30
0.000000
 11
-75.987664
 21
-86.299535
 31
0.000000
 0
LINE
 8
0
 6
CONTINUOUS
 62
7
 10
-77.186841
 20
-86.299535
 30
0.000000
 11
-77.300544
 21
-86.299535
 31
0.000000
 0
LINE
 8
0
 6
CONTINUOUS
 62
7
 10
-108.666690
 20
-86.299535
 30
0.000000
 11
-108.704215
 21
-86.299535
 31
0.000000
 0
LINE
 8
0
 6
CONTINUOUS
 62
7
 10
-68.918974
 20
-130.519311
 30
0.000000
 11
-62.712290
 21
-126.174632
 31
0.000000
 0
LINE
 8
0
 6
CONTINUOUS
 62
7
 10
-105.862153
 20
-129.499536
 30
0.000000
 11
-62.712290
 21
-126.174632
 31
0.000000
 0
LINE
 8
0
 6
CONTINUOUS
 62
7
 10
-68.918974
 20
-130.519311
 30
0.000000
 11
-105.862153
 21
-129.499536
 31
0.000000
 0
LINE
 8
0
 6
CONTINUOUS
 62
7
 10
-59.818974
 20
-127.334782
 30
0.000000
 11
-64.369647
 21
-127.334782
 31
0.000000
 0
LINE
 8
0
 6
CONTINUOUS
 62
7
 10
-59.818974
 20
-127.362025
 30
0.000000
 11
-59.818974
 21
-127.334782
 31
0.000000
 0
LINE
 8
0
 6
CONTINUOUS
 62
7
 10
-59.818974
 20
-130.507539
 30
0.000000
 11
-59.818974
 21
-130.426738
 31
0.000000
 0
LINE
 8
0
 6
CONTINUOUS
 62
7
 10
-68.918805
 20
-130.519193
 30
0.000000
 11
-68.918805
 21
-130.534782
 31
0.000000
 0
LINE
 8
0
 6
CONTINUOUS
 62
7
 10
-59.818974
 20
-130.534782
 30
0.000000
 11
-68.918805
 21
-130.534782
 31
0.000000
 0
LINE
 8
0
 6
CONTINUOUS
 62
7
 10
-59.818974
 20
-130.534782
 30
0.000000
 11
-59.818974
 21
-130.507539
 31
0.000000
 0
LINE
 8
0
 6
CONTINUOUS
 62
7
 10
-59.818974
 20
-130.426738
 30
0.000000
 11
-59.818974
 21
-130.295129
 31
0.000000
 0
LINE
 8
0
 6
CONTINUOUS
 62
7
 10
-59.818974
 20
-130.295129
 30
0.000000
 11
-59.818974
 21
-130.117196
 31
0.000000
 0
LINE
 8
0
 6
CONTINUOUS
 62
7
 10
-59.818974
 20
-130.117196
 30
0.000000
 11
-59.818974
 21
-129.898997
 31
0.000000
 0
LINE
 8
0
 6
CONTINUOUS
 62
7
 10
-59.818974
 20
-129.898997
 30
0.000000
 11
-59.818974
 21
-129.647963
 31
0.000000
 0
LINE
 8
0
 6
CONTINUOUS
 62
7
 10
-59.818974
 20
-129.647963
 30
0.000000
 11
-59.818974
 21
-129.372643
 31
0.000000
 0
LINE
 8
0
 6
CONTINUOUS
 62
7
 10
-59.818974
 20
-129.372643
 30
0.000000
 11
-59.818974
 21
-129.082411
 31
0.000000
 0
LINE
 8
0
 6
CONTINUOUS
 62
7
 10
-59.818974
 20
-129.082411
 30
0.000000
 11
-59.818974
 21
-128.787153
 31
0.000000
 0
LINE
 8
0
 6
CONTINUOUS
 62
7
 10
-59.818974
 20
-128.787153
 30
0.000000
 11
-59.818974
 21
-128.496921
 31
0.000000
 0
LINE
 8
0
 6
CONTINUOUS
 62
7
 10
-59.818974
 20
-128.496921
 30
0.000000
 11
-59.818974
 21
-128.221601
 31
0.000000
 0
LINE
 8
0
 6
CONTINUOUS
 62
7
 10
-59.818974
 20
-128.221601
 30
0.000000
 11
-59.818974
 21
-127.970567
 31
0.000000
 0
LINE
 8
0
 6
CONTINUOUS
 62
7
 10
-59.818974
 20
-127.970567
 30
0.000000
 11
-59.818974
 21
-127.752368
 31
0.000000
 0
LINE
 8
0
 6
CONTINUOUS
 62
7
 10
-59.818974
 20
-127.752368
 30
0.000000
 11
-59.818974
 21
-127.574435
 31
0.000000
 0
LINE
 8
0
 6
CONTINUOUS
 62
7
 10
-59.818974
 20
-127.574435
 30
0.000000
 11
-59.818974
 21
-127.442826
 31
0.000000
 0
LINE
 8
0
 6
CONTINUOUS
 62
7
 10
-59.818974
 20
-127.442826
 30
0.000000
 11
-59.818974
 21
-127.362025
 31
0.000000
 0
LINE
 8
0
 6
CONTINUOUS
 62
7
 10
-92.345663
 20
-103.604621
 30
0.000000
 11
-92.281870
 21
-103.828831
 31
0.000000
 0
LINE
 8
0
 6
CONTINUOUS
 62
7
 10
-92.449569
 20
-103.395950
 30
0.000000
 11
-92.345663
 21
-103.604621
 31
0.000000
 0
LINE
 8
0
 6
CONTINUOUS
 62
7
 10
-92.281870
 20
-103.828831
 30
0.000000
 11
-92.260362
 21
-104.060946
 31
0.000000
 0
LINE
 8
0
 6
CONTINUOUS
 62
7
 10
-94.786785
 20
-104.060946
 30
0.000000
 11
-94.765277
 21
-103.828831
 31
0.000000
 0
LINE
 8
0
 6
CONTINUOUS
 62
7
 10
-94.765277
 20
-103.828831
 30
0.000000
 11
-94.701484
 21
-103.604621
 31
0.000000
 0
LINE
 8
0
 6
CONTINUOUS
 62
7
 10
-94.701484
 20
-103.604621
 30
0.000000
 11
-94.597578
 21
-103.395950
 31
0.000000
 0
LINE
 8
0
 6
CONTINUOUS
 62
7
 10
-94.597578
 20
-103.395950
 30
0.000000
 11
-94.457098
 21
-103.209925
 31
0.000000
 0
LINE
 8
0
 6
CONTINUOUS
 62
7
 10
-94.457098
 20
-103.209925
 30
0.000000
 11
-94.284829
 21
-103.052881
 31
0.000000
 0
LINE
 8
0
 6
CONTINUOUS
 62
7
 10
-94.284829
 20
-103.052881
 30
0.000000
 11
-94.086635
 21
-102.930165
 31
0.000000
 0
LINE
 8
0
 6
CONTINUOUS
 62
7
 10
-94.086635
 20
-102.930165
 30
0.000000
 11
-93.869268
 21
-102.845956
 31
0.000000
 0
LINE
 8
0
 6
CONTINUOUS
 62
7
 10
-93.869268
 20
-102.845956
 30
0.000000
 11
-93.640128
 21
-102.803122
 31
0.000000
 0
LINE
 8
0
 6
CONTINUOUS
 62
7
 10
-93.640128
 20
-102.803122
 30
0.000000
 11
-93.407019
 21
-102.803122
 31
0.000000
 0
LINE
 8
0
 6
CONTINUOUS
 62
7
 10
-93.407019
 20
-102.803122
 30
0.000000
 11
-93.177879
 21
-102.845956
 31
0.000000
 0
LINE
 8
0
 6
CONTINUOUS
 62
7
 10
-93.177879
 20
-102.845956
 30
0.000000
 11
-92.960511
 21
-102.930165
 31
0.000000
 0
LINE
 8
0
 6
CONTINUOUS
 62
7
 10
-92.960511
 20
-102.930165
 30
0.000000
 11
-92.762318
 21
-103.052881
 31
0.000000
 0
LINE
 8
0
 6
CONTINUOUS
 62
7
 10
-92.762318
 20
-103.052881
 30
0.000000
 11
-92.590049
 21
-103.209925
 31
0.000000
 0
LINE
 8
0
 6
CONTINUOUS
 62
7
 10
-92.590049
 20
-103.209925
 30
0.000000
 11
-92.449569
 21
-103.395950
 31
0.000000
 0
LINE
 8
0
 6
CONTINUOUS
 62
7
 10
-92.260362
 20
-104.060946
 30
0.000000
 11
-92.281870
 21
-104.293060
 31
0.000000
 0
LINE
 8
0
 6
CONTINUOUS
 62
7
 10
-92.281870
 20
-104.293060
 30
0.000000
 11
-92.345663
 21
-104.517270
 31
0.000000
 0
LINE
 8
0
 6
CONTINUOUS
 62
7
 10
-92.345663
 20
-104.517270
 30
0.000000
 11
-92.449569
 21
-104.725941
 31
0.000000
 0
LINE
 8
0
 6
CONTINUOUS
 62
7
 10
-92.449569
 20
-104.725941
 30
0.000000
 11
-92.590049
 21
-104.911966
 31
0.000000
 0
LINE
 8
0
 6
CONTINUOUS
 62
7
 10
-92.590049
 20
-104.911966
 30
0.000000
 11
-92.762318
 21
-105.069011
 31
0.000000
 0
LINE
 8
0
 6
CONTINUOUS
 62
7
 10
-92.762318
 20
-105.069011
 30
0.000000
 11
-92.960511
 21
-105.191727
 31
0.000000
 0
LINE
 8
0
 6
CONTINUOUS
 62
7
 10
-92.960511
 20
-105.191727
 30
0.000000
 11
-93.177879
 21
-105.275935
 31
0.000000
 0
LINE
 8
0
 6
CONTINUOUS
 62
7
 10
-93.177879
 20
-105.275935
 30
0.000000
 11
-93.407019
 21
-105.318769
 31
0.000000
 0
LINE
 8
0
 6
CONTINUOUS
 62
7
 10
-93.407019
 20
-105.318769
 30
0.000000
 11
-93.640128
 21
-105.318769
 31
0.000000
 0
LINE
 8
0
 6
CONTINUOUS
 62
7
 10
-93.640128
 20
-105.318769
 30
0.000000
 11
-93.869268
 21
-105.275935
 31
0.000000
 0
LINE
 8
0
 6
CONTINUOUS
 62
7
 10
-93.869268
 20
-105.275935
 30
0.000000
 11
-94.086635
 21
-105.191727
 31
0.000000
 0
LINE
 8
0
 6
CONTINUOUS
 62
7
 10
-94.086635
 20
-105.191727
 30
0.000000
 11
-94.284829
 21
-105.069011
 31
0.000000
 0
LINE
 8
0
 6
CONTINUOUS
 62
7
 10
-94.284829
 20
-105.069011
 30
0.000000
 11
-94.457098
 21
-104.911966
 31
0.000000
 0
LINE
 8
0
 6
CONTINUOUS
 62
7
 10
-94.457098
 20
-104.911966
 30
0.000000
 11
-94.597578
 21
-104.725941
 31
0.000000
 0
LINE
 8
0
 6
CONTINUOUS
 62
7
 10
-94.597578
 20
-104.725941
 30
0.000000
 11
-94.701484
 21
-104.517270
 31
0.000000
 0
LINE
 8
0
 6
CONTINUOUS
 62
7
 10
-94.701484
 20
-104.517270
 30
0.000000
 11
-94.765277
 21
-104.293060
 31
0.000000
 0
LINE
 8
0
 6
CONTINUOUS
 62
7
 10
-94.765277
 20
-104.293060
 30
0.000000
 11
-94.786785
 21
-104.060946
 31
0.000000
 0
LINE
 8
0
 6
CONTINUOUS
 62
7
 10
-92.639643
 20
-105.576490
 30
0.000000
 11
-91.764643
 21
-104.060946
 31
0.000000
 0
LINE
 8
0
 6
CONTINUOUS
 62
7
 10
-95.264643
 20
-104.060946
 30
0.000000
 11
-94.389643
 21
-105.576490
 31
0.000000
 0
LINE
 8
0
 6
CONTINUOUS
 62
7
 10
-94.389643
 20
-102.545401
 30
0.000000
 11
-95.264643
 21
-104.060946
 31
0.000000
 0
LINE
 8
0
 6
CONTINUOUS
 62
7
 10
-92.639643
 20
-102.545401
 30
0.000000
 11
-94.389643
 21
-102.545401
 31
0.000000
 0
LINE
 8
0
 6
CONTINUOUS
 62
7
 10
-91.764643
 20
-104.060946
 30
0.000000
 11
-92.639643
 21
-102.545401
 31
0.000000
 0
LINE
 8
0
 6
CONTINUOUS
 62
7
 10
-94.389643
 20
-105.576490
 30
0.000000
 11
-92.639643
 21
-105.576490
 31
0.000000
 0
LINE
 8
0
 6
CONTINUOUS
 62
7
 10
-88.324215
 20
-104.758518
 30
0.000000
 11
-88.421735
 21
-104.415774
 31
0.000000
 0
LINE
 8
0
 6
CONTINUOUS
 62
7
 10
-88.165377
 20
-105.077508
 30
0.000000
 11
-88.324215
 21
-104.758518
 31
0.000000
 0
LINE
 8
0
 6
CONTINUOUS
 62
7
 10
-88.421735
 20
-104.415774
 30
0.000000
 11
-88.454614
 21
-104.060946
 31
0.000000
 0
LINE
 8
0
 6
CONTINUOUS
 62
7
 10
-88.454614
 20
-104.060946
 30
0.000000
 11
-88.421735
 21
-103.706118
 31
0.000000
 0
LINE
 8
0
 6
CONTINUOUS
 62
7
 10
-88.421735
 20
-103.706118
 30
0.000000
 11
-88.324215
 21
-103.363373
 31
0.000000
 0
LINE
 8
0
 6
CONTINUOUS
 62
7
 10
-88.324215
 20
-103.363373
 30
0.000000
 11
-88.165377
 21
-103.044384
 31
0.000000
 0
LINE
 8
0
 6
CONTINUOUS
 62
7
 10
-88.165377
 20
-103.044384
 30
0.000000
 11
-87.950630
 21
-102.760012
 31
0.000000
 0
LINE
 8
0
 6
CONTINUOUS
 62
7
 10
-87.950630
 20
-102.760012
 30
0.000000
 11
-87.687286
 21
-102.519942
 31
0.000000
 0
LINE
 8
0
 6
CONTINUOUS
 62
7
 10
-87.687286
 20
-102.519942
 30
0.000000
 11
-87.384312
 21
-102.332349
 31
0.000000
 0
LINE
 8
0
 6
CONTINUOUS
 62
7
 10
-87.384312
 20
-102.332349
 30
0.000000
 11
-87.052028
 21
-102.203621
 31
0.000000
 0
LINE
 8
0
 6
CONTINUOUS
 62
7
 10
-87.052028
 20
-102.203621
 30
0.000000
 11
-86.701747
 21
-102.138142
 31
0.000000
 0
LINE
 8
0
 6
CONTINUOUS
 62
7
 10
-86.701747
 20
-102.138142
 30
0.000000
 11
-86.345399
 21
-102.138142
 31
0.000000
 0
LINE
 8
0
 6
CONTINUOUS
 62
7
 10
-86.345399
 20
-102.138142
 30
0.000000
 11
-85.995119
 21
-102.203621
 31
0.000000
 0
LINE
 8
0
 6
CONTINUOUS
 62
7
 10
-85.995119
 20
-102.203621
 30
0.000000
 11
-85.662834
 21
-102.332349
 31
0.000000
 0
LINE
 8
0
 6
CONTINUOUS
 62
7
 10
-85.662834
 20
-102.332349
 30
0.000000
 11
-85.359861
 21
-102.519942
 31
0.000000
 0
LINE
 8
0
 6
CONTINUOUS
 62
7
 10
-85.359861
 20
-102.519942
 30
0.000000
 11
-85.096517
 21
-102.760012
 31
0.000000
 0
LINE
 8
0
 6
CONTINUOUS
 62
7
 10
-85.096517
 20
-102.760012
 30
0.000000
 11
-84.881769
 21
-103.044384
 31
0.000000
 0
LINE
 8
0
 6
CONTINUOUS
 62
7
 10
-84.881769
 20
-103.044384
 30
0.000000
 11
-84.722931
 21
-103.363373
 31
0.000000
 0
LINE
 8
0
 6
CONTINUOUS
 62
7
 10
-84.722931
 20
-103.363373
 30
0.000000
 11
-84.625412
 21
-103.706118
 31
0.000000
 0
LINE
 8
0
 6
CONTINUOUS
 62
7
 10
-84.625412
 20
-103.706118
 30
0.000000
 11
-84.592532
 21
-104.060946
 31
0.000000
 0
LINE
 8
0
 6
CONTINUOUS
 62
7
 10
-84.592532
 20
-104.060946
 30
0.000000
 11
-84.625412
 21
-104.415774
 31
0.000000
 0
LINE
 8
0
 6
CONTINUOUS
 62
7
 10
-84.625412
 20
-104.415774
 30
0.000000
 11
-84.722931
 21
-104.758518
 31
0.000000
 0
LINE
 8
0
 6
CONTINUOUS
 62
7
 10
-84.722931
 20
-104.758518
 30
0.000000
 11
-84.881769
 21
-105.077508
 31
0.000000
 0
LINE
 8
0
 6
CONTINUOUS
 62
7
 10
-84.881769
 20
-105.077508
 30
0.000000
 11
-85.096517
 21
-105.361880
 31
0.000000
 0
LINE
 8
0
 6
CONTINUOUS
 62
7
 10
-85.096517
 20
-105.361880
 30
0.000000
 11
-85.359861
 21
-105.601950
 31
0.000000
 0
LINE
 8
0
 6
CONTINUOUS
 62
7
 10
-85.359861
 20
-105.601950
 30
0.000000
 11
-85.662834
 21
-105.789543
 31
0.000000
 0
LINE
 8
0
 6
CONTINUOUS
 62
7
 10
-85.662834
 20
-105.789543
 30
0.000000
 11
-85.995119
 21
-105.918270
 31
0.000000
 0
LINE
 8
0
 6
CONTINUOUS
 62
7
 10
-85.995119
 20
-105.918270
 30
0.000000
 11
-86.345399
 21
-105.983749
 31
0.000000
 0
LINE
 8
0
 6
CONTINUOUS
 62
7
 10
-86.345399
 20
-105.983749
 30
0.000000
 11
-86.701747
 21
-105.983749
 31
0.000000
 0
LINE
 8
0
 6
CONTINUOUS
 62
7
 10
-86.701747
 20
-105.983749
 30
0.000000
 11
-87.052028
 21
-105.918270
 31
0.000000
 0
LINE
 8
0
 6
CONTINUOUS
 62
7
 10
-87.052028
 20
-105.918270
 30
0.000000
 11
-87.384312
 21
-105.789543
 31
0.000000
 0
LINE
 8
0
 6
CONTINUOUS
 62
7
 10
-87.384312
 20
-105.789543
 30
0.000000
 11
-87.687286
 21
-105.601950
 31
0.000000
 0
LINE
 8
0
 6
CONTINUOUS
 62
7
 10
-87.687286
 20
-105.601950
 30
0.000000
 11
-87.950630
 21
-105.361880
 31
0.000000
 0
LINE
 8
0
 6
CONTINUOUS
 62
7
 10
-87.950630
 20
-105.361880
 30
0.000000
 11
-88.165377
 21
-105.077508
 31
0.000000
 0
LINE
 8
0
 6
CONTINUOUS
 62
7
 10
-95.324216
 20
-104.758518
 30
0.000000
 11
-95.421735
 21
-104.415774
 31
0.000000
 0
LINE
 8
0
 6
CONTINUOUS
 62
7
 10
-95.165378
 20
-105.077508
 30
0.000000
 11
-95.324216
 21
-104.758518
 31
0.000000
 0
LINE
 8
0
 6
CONTINUOUS
 62
7
 10
-95.421735
 20
-104.415774
 30
0.000000
 11
-95.454615
 21
-104.060946
 31
0.000000
 0
LINE
 8
0
 6
CONTINUOUS
 62
7
 10
-95.454615
 20
-104.060946
 30
0.000000
 11
-95.421735
 21
-103.706118
 31
0.000000
 0
LINE
 8
0
 6
CONTINUOUS
 62
7
 10
-95.421735
 20
-103.706118
 30
0.000000
 11
-95.324216
 21
-103.363373
 31
0.000000
 0
LINE
 8
0
 6
CONTINUOUS
 62
7
 10
-95.324216
 20
-103.363373
 30
0.000000
 11
-95.165378
 21
-103.044384
 31
0.000000
 0
LINE
 8
0
 6
CONTINUOUS
 62
7
 10
-95.165378
 20
-103.044384
 30
0.000000
 11
-94.950630
 21
-102.760012
 31
0.000000
 0
LINE
 8
0
 6
CONTINUOUS
 62
7
 10
-94.950630
 20
-102.760012
 30
0.000000
 11
-94.687286
 21
-102.519942
 31
0.000000
 0
LINE
 8
0
 6
CONTINUOUS
 62
7
 10
-94.687286
 20
-102.519942
 30
0.000000
 11
-94.384313
 21
-102.332349
 31
0.000000
 0
LINE
 8
0
 6
CONTINUOUS
 62
7
 10
-94.384313
 20
-102.332349
 30
0.000000
 11
-94.052028
 21
-102.203621
 31
0.000000
 0
LINE
 8
0
 6
CONTINUOUS
 62
7
 10
-94.052028
 20
-102.203621
 30
0.000000
 11
-93.701747
 21
-102.138142
 31
0.000000
 0
LINE
 8
0
 6
CONTINUOUS
 62
7
 10
-93.701747
 20
-102.138142
 30
0.000000
 11
-93.345399
 21
-102.138142
 31
0.000000
 0
LINE
 8
0
 6
CONTINUOUS
 62
7
 10
-93.345399
 20
-102.138142
 30
0.000000
 11
-92.995119
 21
-102.203621
 31
0.000000
 0
LINE
 8
0
 6
CONTINUOUS
 62
7
 10
-92.995119
 20
-102.203621
 30
0.000000
 11
-92.662834
 21
-102.332349
 31
0.000000
 0
LINE
 8
0
 6
CONTINUOUS
 62
7
 10
-92.662834
 20
-102.332349
 30
0.000000
 11
-92.359861
 21
-102.519942
 31
0.000000
 0
LINE
 8
0
 6
CONTINUOUS
 62
7
 10
-92.359861
 20
-102.519942
 30
0.000000
 11
-92.096517
 21
-102.760012
 31
0.000000
 0
LINE
 8
0
 6
CONTINUOUS
 62
7
 10
-92.096517
 20
-102.760012
 30
0.000000
 11
-91.881769
 21
-103.044384
 31
0.000000
 0
LINE
 8
0
 6
CONTINUOUS
 62
7
 10
-91.881769
 20
-103.044384
 30
0.000000
 11
-91.722931
 21
-103.363373
 31
0.000000
 0
LINE
 8
0
 6
CONTINUOUS
 62
7
 10
-91.722931
 20
-103.363373
 30
0.000000
 11
-91.625412
 21
-103.706118
 31
0.000000
 0
LINE
 8
0
 6
CONTINUOUS
 62
7
 10
-91.625412
 20
-103.706118
 30
0.000000
 11
-91.592532
 21
-104.060946
 31
0.000000
 0
LINE
 8
0
 6
CONTINUOUS
 62
7
 10
-91.592532
 20
-104.060946
 30
0.000000
 11
-91.625412
 21
-104.415774
 31
0.000000
 0
LINE
 8
0
 6
CONTINUOUS
 62
7
 10
-91.625412
 20
-104.415774
 30
0.000000
 11
-91.722931
 21
-104.758518
 31
0.000000
 0
LINE
 8
0
 6
CONTINUOUS
 62
7
 10
-91.722931
 20
-104.758518
 30
0.000000
 11
-91.881769
 21
-105.077508
 31
0.000000
 0
LINE
 8
0
 6
CONTINUOUS
 62
7
 10
-91.881769
 20
-105.077508
 30
0.000000
 11
-92.096517
 21
-105.361880
 31
0.000000
 0
LINE
 8
0
 6
CONTINUOUS
 62
7
 10
-92.096517
 20
-105.361880
 30
0.000000
 11
-92.359861
 21
-105.601950
 31
0.000000
 0
LINE
 8
0
 6
CONTINUOUS
 62
7
 10
-92.359861
 20
-105.601950
 30
0.000000
 11
-92.662834
 21
-105.789543
 31
0.000000
 0
LINE
 8
0
 6
CONTINUOUS
 62
7
 10
-92.662834
 20
-105.789543
 30
0.000000
 11
-92.995119
 21
-105.918270
 31
0.000000
 0
LINE
 8
0
 6
CONTINUOUS
 62
7
 10
-92.995119
 20
-105.918270
 30
0.000000
 11
-93.345399
 21
-105.983749
 31
0.000000
 0
LINE
 8
0
 6
CONTINUOUS
 62
7
 10
-93.345399
 20
-105.983749
 30
0.000000
 11
-93.701747
 21
-105.983749
 31
0.000000
 0
LINE
 8
0
 6
CONTINUOUS
 62
7
 10
-93.701747
 20
-105.983749
 30
0.000000
 11
-94.052028
 21
-105.918270
 31
0.000000
 0
LINE
 8
0
 6
CONTINUOUS
 62
7
 10
-94.052028
 20
-105.918270
 30
0.000000
 11
-94.384313
 21
-105.789543
 31
0.000000
 0
LINE
 8
0
 6
CONTINUOUS
 62
7
 10
-94.384313
 20
-105.789543
 30
0.000000
 11
-94.687286
 21
-105.601950
 31
0.000000
 0
LINE
 8
0
 6
CONTINUOUS
 62
7
 10
-94.687286
 20
-105.601950
 30
0.000000
 11
-94.950630
 21
-105.361880
 31
0.000000
 0
LINE
 8
0
 6
CONTINUOUS
 62
7
 10
-94.950630
 20
-105.361880
 30
0.000000
 11
-95.165378
 21
-105.077508
 31
0.000000
 0
LINE
 8
0
 6
CONTINUOUS
 62
7
 10
-85.345663
 20
-103.604621
 30
0.000000
 11
-85.281870
 21
-103.828831
 31
0.000000
 0
LINE
 8
0
 6
CONTINUOUS
 62
7
 10
-85.449569
 20
-103.395950
 30
0.000000
 11
-85.345663
 21
-103.604621
 31
0.000000
 0
LINE
 8
0
 6
CONTINUOUS
 62
7
 10
-85.281870
 20
-103.828831
 30
0.000000
 11
-85.260361
 21
-104.060946
 31
0.000000
 0
LINE
 8
0
 6
CONTINUOUS
 62
7
 10
-87.786785
 20
-104.060946
 30
0.000000
 11
-87.765277
 21
-103.828831
 31
0.000000
 0
LINE
 8
0
 6
CONTINUOUS
 62
7
 10
-87.765277
 20
-103.828831
 30
0.000000
 11
-87.701483
 21
-103.604621
 31
0.000000
 0
LINE
 8
0
 6
CONTINUOUS
 62
7
 10
-87.701483
 20
-103.604621
 30
0.000000
 11
-87.597578
 21
-103.395950
 31
0.000000
 0
LINE
 8
0
 6
CONTINUOUS
 62
7
 10
-87.597578
 20
-103.395950
 30
0.000000
 11
-87.457098
 21
-103.209925
 31
0.000000
 0
LINE
 8
0
 6
CONTINUOUS
 62
7
 10
-87.457098
 20
-103.209925
 30
0.000000
 11
-87.284829
 21
-103.052881
 31
0.000000
 0
LINE
 8
0
 6
CONTINUOUS
 62
7
 10
-87.284829
 20
-103.052881
 30
0.000000
 11
-87.086635
 21
-102.930165
 31
0.000000
 0
LINE
 8
0
 6
CONTINUOUS
 62
7
 10
-87.086635
 20
-102.930165
 30
0.000000
 11
-86.869268
 21
-102.845956
 31
0.000000
 0
LINE
 8
0
 6
CONTINUOUS
 62
7
 10
-86.869268
 20
-102.845956
 30
0.000000
 11
-86.640128
 21
-102.803122
 31
0.000000
 0
LINE
 8
0
 6
CONTINUOUS
 62
7
 10
-86.640128
 20
-102.803122
 30
0.000000
 11
-86.407019
 21
-102.803122
 31
0.000000
 0
LINE
 8
0
 6
CONTINUOUS
 62
7
 10
-86.407019
 20
-102.803122
 30
0.000000
 11
-86.177879
 21
-102.845956
 31
0.000000
 0
LINE
 8
0
 6
CONTINUOUS
 62
7
 10
-86.177879
 20
-102.845956
 30
0.000000
 11
-85.960511
 21
-102.930165
 31
0.000000
 0
LINE
 8
0
 6
CONTINUOUS
 62
7
 10
-85.960511
 20
-102.930165
 30
0.000000
 11
-85.762318
 21
-103.052881
 31
0.000000
 0
LINE
 8
0
 6
CONTINUOUS
 62
7
 10
-85.762318
 20
-103.052881
 30
0.000000
 11
-85.590048
 21
-103.209925
 31
0.000000
 0
LINE
 8
0
 6
CONTINUOUS
 62
7
 10
-85.590048
 20
-103.209925
 30
0.000000
 11
-85.449569
 21
-103.395950
 31
0.000000
 0
LINE
 8
0
 6
CONTINUOUS
 62
7
 10
-85.260361
 20
-104.060946
 30
0.000000
 11
-85.281870
 21
-104.293060
 31
0.000000
 0
LINE
 8
0
 6
CONTINUOUS
 62
7
 10
-85.281870
 20
-104.293060
 30
0.000000
 11
-85.345663
 21
-104.517270
 31
0.000000
 0
LINE
 8
0
 6
CONTINUOUS
 62
7
 10
-85.345663
 20
-104.517270
 30
0.000000
 11
-85.449569
 21
-104.725941
 31
0.000000
 0
LINE
 8
0
 6
CONTINUOUS
 62
7
 10
-85.449569
 20
-104.725941
 30
0.000000
 11
-85.590048
 21
-104.911966
 31
0.000000
 0
LINE
 8
0
 6
CONTINUOUS
 62
7
 10
-85.590048
 20
-104.911966
 30
0.000000
 11
-85.762318
 21
-105.069011
 31
0.000000
 0
LINE
 8
0
 6
CONTINUOUS
 62
7
 10
-85.762318
 20
-105.069011
 30
0.000000
 11
-85.960511
 21
-105.191727
 31
0.000000
 0
LINE
 8
0
 6
CONTINUOUS
 62
7
 10
-85.960511
 20
-105.191727
 30
0.000000
 11
-86.177879
 21
-105.275935
 31
0.000000
 0
LINE
 8
0
 6
CONTINUOUS
 62
7
 10
-86.177879
 20
-105.275935
 30
0.000000
 11
-86.407019
 21
-105.318769
 31
0.000000
 0
LINE
 8
0
 6
CONTINUOUS
 62
7
 10
-86.407019
 20
-105.318769
 30
0.000000
 11
-86.640128
 21
-105.318769
 31
0.000000
 0
LINE
 8
0
 6
CONTINUOUS
 62
7
 10
-86.640128
 20
-105.318769
 30
0.000000
 11
-86.869268
 21
-105.275935
 31
0.000000
 0
LINE
 8
0
 6
CONTINUOUS
 62
7
 10
-86.869268
 20
-105.275935
 30
0.000000
 11
-87.086635
 21
-105.191727
 31
0.000000
 0
LINE
 8
0
 6
CONTINUOUS
 62
7
 10
-87.086635
 20
-105.191727
 30
0.000000
 11
-87.284829
 21
-105.069011
 31
0.000000
 0
LINE
 8
0
 6
CONTINUOUS
 62
7
 10
-87.284829
 20
-105.069011
 30
0.000000
 11
-87.457098
 21
-104.911966
 31
0.000000
 0
LINE
 8
0
 6
CONTINUOUS
 62
7
 10
-87.457098
 20
-104.911966
 30
0.000000
 11
-87.597578
 21
-104.725941
 31
0.000000
 0
LINE
 8
0
 6
CONTINUOUS
 62
7
 10
-87.597578
 20
-104.725941
 30
0.000000
 11
-87.701483
 21
-104.517270
 31
0.000000
 0
LINE
 8
0
 6
CONTINUOUS
 62
7
 10
-87.701483
 20
-104.517270
 30
0.000000
 11
-87.765277
 21
-104.293060
 31
0.000000
 0
LINE
 8
0
 6
CONTINUOUS
 62
7
 10
-87.765277
 20
-104.293060
 30
0.000000
 11
-87.786785
 21
-104.060946
 31
0.000000
 0
LINE
 8
0
 6
CONTINUOUS
 62
7
 10
-85.639643
 20
-105.576490
 30
0.000000
 11
-84.764643
 21
-104.060946
 31
0.000000
 0
LINE
 8
0
 6
CONTINUOUS
 62
7
 10
-88.264643
 20
-104.060946
 30
0.000000
 11
-87.389643
 21
-105.576490
 31
0.000000
 0
LINE
 8
0
 6
CONTINUOUS
 62
7
 10
-87.389643
 20
-102.545401
 30
0.000000
 11
-88.264643
 21
-104.060946
 31
0.000000
 0
LINE
 8
0
 6
CONTINUOUS
 62
7
 10
-85.639643
 20
-102.545401
 30
0.000000
 11
-87.389643
 21
-102.545401
 31
0.000000
 0
LINE
 8
0
 6
CONTINUOUS
 62
7
 10
-84.764643
 20
-104.060946
 30
0.000000
 11
-85.639643
 21
-102.545401
 31
0.000000
 0
LINE
 8
0
 6
CONTINUOUS
 62
7
 10
-87.389643
 20
-105.576490
 30
0.000000
 11
-85.639643
 21
-105.576490
 31
0.000000
 0
LINE
 8
0
 6
CONTINUOUS
 62
7
 10
-45.666083
 20
-85.799535
 30
0.000000
 11
-45.655880
 21
-85.799535
 31
0.000000
 0
LINE
 8
0
 6
CONTINUOUS
 62
7
 10
-45.655880
 20
-85.799535
 30
0.000000
 11
-45.625621
 21
-85.799535
 31
0.000000
 0
LINE
 8
0
 6
CONTINUOUS
 62
7
 10
-45.625621
 20
-85.799535
 30
0.000000
 11
-45.576335
 21
-85.799535
 31
0.000000
 0
LINE
 8
0
 6
CONTINUOUS
 62
7
 10
-45.576335
 20
-85.799535
 30
0.000000
 11
-45.509700
 21
-85.799535
 31
0.000000
 0
LINE
 8
0
 6
CONTINUOUS
 62
7
 10
-45.509700
 20
-85.799535
 30
0.000000
 11
-45.427986
 21
-85.799535
 31
0.000000
 0
LINE
 8
0
 6
CONTINUOUS
 62
7
 10
-45.427986
 20
-85.799535
 30
0.000000
 11
-45.333976
 21
-85.799535
 31
0.000000
 0
LINE
 8
0
 6
CONTINUOUS
 62
7
 10
-45.333976
 20
-85.799535
 30
0.000000
 11
-45.230871
 21
-85.799535
 31
0.000000
 0
LINE
 8
0
 6
CONTINUOUS
 62
7
 10
-45.122181
 20
-85.799535
 30
0.000000
 11
-45.011609
 21
-85.799535
 31
0.000000
 0
LINE
 8
0
 6
CONTINUOUS
 62
7
 10
-45.230871
 20
-85.799535
 30
0.000000
 11
-45.122181
 21
-85.799535
 31
0.000000
 0
LINE
 8
0
 6
CONTINUOUS
 62
7
 10
-45.011609
 20
-85.799535
 30
0.000000
 11
-44.902919
 21
-85.799535
 31
0.000000
 0
LINE
 8
0
 6
CONTINUOUS
 62
7
 10
-44.902919
 20
-85.799535
 30
0.000000
 11
-44.799814
 21
-85.799535
 31
0.000000
 0
LINE
 8
0
 6
CONTINUOUS
 62
7
 10
-44.799814
 20
-85.799535
 30
0.000000
 11
-44.705804
 21
-85.799535
 31
0.000000
 0
LINE
 8
0
 6
CONTINUOUS
 62
7
 10
-44.705804
 20
-85.799535
 30
0.000000
 11
-44.624090
 21
-85.799535
 31
0.000000
 0
LINE
 8
0
 6
CONTINUOUS
 62
7
 10
-44.624090
 20
-85.799535
 30
0.000000
 11
-44.557455
 21
-85.799535
 31
0.000000
 0
LINE
 8
0
 6
CONTINUOUS
 62
7
 10
-44.557455
 20
-85.799535
 30
0.000000
 11
-44.508169
 21
-85.799535
 31
0.000000
 0
LINE
 8
0
 6
CONTINUOUS
 62
7
 10
-44.508169
 20
-85.799535
 30
0.000000
 11
-44.477910
 21
-85.799535
 31
0.000000
 0
LINE
 8
0
 6
CONTINUOUS
 62
7
 10
-44.477910
 20
-85.799535
 30
0.000000
 11
-44.467707
 21
-85.799535
 31
0.000000
 0
LINE
 8
0
 6
CONTINUOUS
 62
7
 10
-77.186841
 20
-85.799535
 30
0.000000
 11
-77.176632
 21
-85.799535
 31
0.000000
 0
LINE
 8
0
 6
CONTINUOUS
 62
7
 10
-77.176632
 20
-85.799535
 30
0.000000
 11
-77.146352
 21
-85.799535
 31
0.000000
 0
LINE
 8
0
 6
CONTINUOUS
 62
7
 10
-77.146352
 20
-85.799535
 30
0.000000
 11
-77.097033
 21
-85.799535
 31
0.000000
 0
LINE
 8
0
 6
CONTINUOUS
 62
7
 10
-77.097033
 20
-85.799535
 30
0.000000
 11
-77.030353
 21
-85.799535
 31
0.000000
 0
LINE
 8
0
 6
CONTINUOUS
 62
7
 10
-77.030353
 20
-85.799535
 30
0.000000
 11
-76.948585
 21
-85.799535
 31
0.000000
 0
LINE
 8
0
 6
CONTINUOUS
 62
7
 10
-76.948585
 20
-85.799535
 30
0.000000
 11
-76.854512
 21
-85.799535
 31
0.000000
 0
LINE
 8
0
 6
CONTINUOUS
 62
7
 10
-76.854512
 20
-85.799535
 30
0.000000
 11
-76.751337
 21
-85.799535
 31
0.000000
 0
LINE
 8
0
 6
CONTINUOUS
 62
7
 10
-76.642575
 20
-85.799535
 30
0.000000
 11
-76.531929
 21
-85.799535
 31
0.000000
 0
LINE
 8
0
 6
CONTINUOUS
 62
7
 10
-76.751337
 20
-85.799535
 30
0.000000
 11
-76.642575
 21
-85.799535
 31
0.000000
 0
LINE
 8
0
 6
CONTINUOUS
 62
7
 10
-76.531929
 20
-85.799535
 30
0.000000
 11
-76.423167
 21
-85.799535
 31
0.000000
 0
LINE
 8
0
 6
CONTINUOUS
 62
7
 10
-76.423167
 20
-85.799535
 30
0.000000
 11
-76.319993
 21
-85.799535
 31
0.000000
 0
LINE
 8
0
 6
CONTINUOUS
 62
7
 10
-76.319993
 20
-85.799535
 30
0.000000
 11
-76.225920
 21
-85.799535
 31
0.000000
 0
LINE
 8
0
 6
CONTINUOUS
 62
7
 10
-76.225920
 20
-85.799535
 30
0.000000
 11
-76.144151
 21
-85.799535
 31
0.000000
 0
LINE
 8
0
 6
CONTINUOUS
 62
7
 10
-76.144151
 20
-85.799535
 30
0.000000
 11
-76.077472
 21
-85.799535
 31
0.000000
 0
LINE
 8
0
 6
CONTINUOUS
 62
7
 10
-76.077472
 20
-85.799535
 30
0.000000
 11
-76.028153
 21
-85.799535
 31
0.000000
 0
LINE
 8
0
 6
CONTINUOUS
 62
7
 10
-76.028153
 20
-85.799535
 30
0.000000
 11
-75.997873
 21
-85.799535
 31
0.000000
 0
LINE
 8
0
 6
CONTINUOUS
 62
7
 10
-75.997873
 20
-85.799535
 30
0.000000
 11
-75.987664
 21
-85.799535
 31
0.000000
 0
LINE
 8
0
 6
CONTINUOUS
 62
7
 10
-108.665910
 20
-85.799535
 30
0.000000
 11
-108.655715
 21
-85.799535
 31
0.000000
 0
LINE
 8
0
 6
CONTINUOUS
 62
7
 10
-108.655715
 20
-85.799535
 30
0.000000
 11
-108.625477
 21
-85.799535
 31
0.000000
 0
LINE
 8
0
 6
CONTINUOUS
 62
7
 10
-108.625477
 20
-85.799535
 30
0.000000
 11
-108.576225
 21
-85.799535
 31
0.000000
 0
LINE
 8
0
 6
CONTINUOUS
 62
7
 10
-108.576225
 20
-85.799535
 30
0.000000
 11
-108.509637
 21
-85.799535
 31
0.000000
 0
LINE
 8
0
 6
CONTINUOUS
 62
7
 10
-108.509637
 20
-85.799535
 30
0.000000
 11
-108.427981
 21
-85.799535
 31
0.000000
 0
LINE
 8
0
 6
CONTINUOUS
 62
7
 10
-108.427981
 20
-85.799535
 30
0.000000
 11
-108.334037
 21
-85.799535
 31
0.000000
 0
LINE
 8
0
 6
CONTINUOUS
 62
7
 10
-108.334037
 20
-85.799535
 30
0.000000
 11
-108.231004
 21
-85.799535
 31
0.000000
 0
LINE
 8
0
 6
CONTINUOUS
 62
7
 10
-108.122391
 20
-85.799535
 30
0.000000
 11
-108.011896
 21
-85.799535
 31
0.000000
 0
LINE
 8
0
 6
CONTINUOUS
 62
7
 10
-108.231004
 20
-85.799535
 30
0.000000
 11
-108.122391
 21
-85.799535
 31
0.000000
 0
LINE
 8
0
 6
CONTINUOUS
 62
7
 10
-108.011896
 20
-85.799535
 30
0.000000
 11
-107.903283
 21
-85.799535
 31
0.000000
 0
LINE
 8
0
 6
CONTINUOUS
 62
7
 10
-107.903283
 20
-85.799535
 30
0.000000
 11
-107.800250
 21
-85.799535
 31
0.000000
 0
LINE
 8
0
 6
CONTINUOUS
 62
7
 10
-107.800250
 20
-85.799535
 30
0.000000
 11
-107.706306
 21
-85.799535
 31
0.000000
 0
LINE
 8
0
 6
CONTINUOUS
 62
7
 10
-107.706306
 20
-85.799535
 30
0.000000
 11
-107.624649
 21
-85.799535
 31
0.000000
 0
LINE
 8
0
 6
CONTINUOUS
 62
7
 10
-107.624649
 20
-85.799535
 30
0.000000
 11
-107.558062
 21
-85.799535
 31
0.000000
 0
LINE
 8
0
 6
CONTINUOUS
 62
7
 10
-107.558062
 20
-85.799535
 30
0.000000
 11
-107.508810
 21
-85.799535
 31
0.000000
 0
LINE
 8
0
 6
CONTINUOUS
 62
7
 10
-107.508810
 20
-85.799535
 30
0.000000
 11
-107.478572
 21
-85.799535
 31
0.000000
 0
LINE
 8
0
 6
CONTINUOUS
 62
7
 10
-107.478572
 20
-85.799535
 30
0.000000
 11
-107.468377
 21
-85.799535
 31
0.000000
 0
LINE
 8
0
 6
CONTINUOUS
 62
7
 10
-108.666690
 20
-85.799535
 30
0.000000
 11
-108.656488
 21
-85.799535
 31
0.000000
 0
LINE
 8
0
 6
CONTINUOUS
 62
7
 10
-108.656488
 20
-85.799535
 30
0.000000
 11
-108.626229
 21
-85.799535
 31
0.000000
 0
LINE
 8
0
 6
CONTINUOUS
 62
7
 10
-108.626229
 20
-85.799535
 30
0.000000
 11
-108.576945
 21
-85.799535
 31
0.000000
 0
LINE
 8
0
 6
CONTINUOUS
 62
7
 10
-108.576945
 20
-85.799535
 30
0.000000
 11
-108.510312
 21
-85.799535
 31
0.000000
 0
LINE
 8
0
 6
CONTINUOUS
 62
7
 10
-108.510312
 20
-85.799535
 30
0.000000
 11
-108.428601
 21
-85.799535
 31
0.000000
 0
LINE
 8
0
 6
CONTINUOUS
 62
7
 10
-108.428601
 20
-85.799535
 30
0.000000
 11
-108.334594
 21
-85.799535
 31
0.000000
 0
LINE
 8
0
 6
CONTINUOUS
 62
7
 10
-108.334594
 20
-85.799535
 30
0.000000
 11
-108.231492
 21
-85.799535
 31
0.000000
 0
LINE
 8
0
 6
CONTINUOUS
 62
7
 10
-108.122807
 20
-85.799535
 30
0.000000
 11
-108.012238
 21
-85.799535
 31
0.000000
 0
LINE
 8
0
 6
CONTINUOUS
 62
7
 10
-108.231492
 20
-85.799535
 30
0.000000
 11
-108.122807
 21
-85.799535
 31
0.000000
 0
LINE
 8
0
 6
CONTINUOUS
 62
7
 10
-108.012238
 20
-85.799535
 30
0.000000
 11
-107.903553
 21
-85.799535
 31
0.000000
 0
LINE
 8
0
 6
CONTINUOUS
 62
7
 10
-107.903553
 20
-85.799535
 30
0.000000
 11
-107.800451
 21
-85.799535
 31
0.000000
 0
LINE
 8
0
 6
CONTINUOUS
 62
7
 10
-107.800451
 20
-85.799535
 30
0.000000
 11
-107.706443
 21
-85.799535
 31
0.000000
 0
LINE
 8
0
 6
CONTINUOUS
 62
7
 10
-107.706443
 20
-85.799535
 30
0.000000
 11
-107.624732
 21
-85.799535
 31
0.000000
 0
LINE
 8
0
 6
CONTINUOUS
 62
7
 10
-107.624732
 20
-85.799535
 30
0.000000
 11
-107.558100
 21
-85.799535
 31
0.000000
 0
LINE
 8
0
 6
CONTINUOUS
 62
7
 10
-107.558100
 20
-85.799535
 30
0.000000
 11
-107.508816
 21
-85.799535
 31
0.000000
 0
LINE
 8
0
 6
CONTINUOUS
 62
7
 10
-107.508816
 20
-85.799535
 30
0.000000
 11
-107.478557
 21
-85.799535
 31
0.000000
 0
LINE
 8
0
 6
CONTINUOUS
 62
7
 10
-107.478557
 20
-85.799535
 30
0.000000
 11
-107.468355
 21
-85.799535
 31
0.000000
 0
LINE
 8
0
 6
CONTINUOUS
 62
7
 10
-77.186799
 20
-85.799535
 30
0.000000
 11
-77.176597
 21
-85.799535
 31
0.000000
 0
LINE
 8
0
 6
CONTINUOUS
 62
7
 10
-77.176597
 20
-85.799535
 30
0.000000
 11
-77.146338
 21
-85.799535
 31
0.000000
 0
LINE
 8
0
 6
CONTINUOUS
 62
7
 10
-77.146338
 20
-85.799535
 30
0.000000
 11
-77.097054
 21
-85.799535
 31
0.000000
 0
LINE
 8
0
 6
CONTINUOUS
 62
7
 10
-77.097054
 20
-85.799535
 30
0.000000
 11
-77.030421
 21
-85.799535
 31
0.000000
 0
LINE
 8
0
 6
CONTINUOUS
 62
7
 10
-77.030421
 20
-85.799535
 30
0.000000
 11
-76.948710
 21
-85.799535
 31
0.000000
 0
LINE
 8
0
 6
CONTINUOUS
 62
7
 10
-76.948710
 20
-85.799535
 30
0.000000
 11
-76.854703
 21
-85.799535
 31
0.000000
 0
LINE
 8
0
 6
CONTINUOUS
 62
7
 10
-76.854703
 20
-85.799535
 30
0.000000
 11
-76.751601
 21
-85.799535
 31
0.000000
 0
LINE
 8
0
 6
CONTINUOUS
 62
7
 10
-76.642916
 20
-85.799535
 30
0.000000
 11
-76.532347
 21
-85.799535
 31
0.000000
 0
LINE
 8
0
 6
CONTINUOUS
 62
7
 10
-76.751601
 20
-85.799535
 30
0.000000
 11
-76.642916
 21
-85.799535
 31
0.000000
 0
LINE
 8
0
 6
CONTINUOUS
 62
7
 10
-76.532347
 20
-85.799535
 30
0.000000
 11
-76.423662
 21
-85.799535
 31
0.000000
 0
LINE
 8
0
 6
CONTINUOUS
 62
7
 10
-76.423662
 20
-85.799535
 30
0.000000
 11
-76.320560
 21
-85.799535
 31
0.000000
 0
LINE
 8
0
 6
CONTINUOUS
 62
7
 10
-76.320560
 20
-85.799535
 30
0.000000
 11
-76.226552
 21
-85.799535
 31
0.000000
 0
LINE
 8
0
 6
CONTINUOUS
 62
7
 10
-76.226552
 20
-85.799535
 30
0.000000
 11
-76.144841
 21
-85.799535
 31
0.000000
 0
LINE
 8
0
 6
CONTINUOUS
 62
7
 10
-76.144841
 20
-85.799535
 30
0.000000
 11
-76.078209
 21
-85.799535
 31
0.000000
 0
LINE
 8
0
 6
CONTINUOUS
 62
7
 10
-76.078209
 20
-85.799535
 30
0.000000
 11
-76.028925
 21
-85.799535
 31
0.000000
 0
LINE
 8
0
 6
CONTINUOUS
 62
7
 10
-76.028925
 20
-85.799535
 30
0.000000
 11
-75.998666
 21
-85.799535
 31
0.000000
 0
LINE
 8
0
 6
CONTINUOUS
 62
7
 10
-75.998666
 20
-85.799535
 30
0.000000
 11
-75.988464
 21
-85.799535
 31
0.000000
 0
LINE
 8
0
 6
CONTINUOUS
 62
7
 10
-45.666018
 20
-85.799535
 30
0.000000
 11
-45.655823
 21
-85.799535
 31
0.000000
 0
LINE
 8
0
 6
CONTINUOUS
 62
7
 10
-45.655823
 20
-85.799535
 30
0.000000
 11
-45.625585
 21
-85.799535
 31
0.000000
 0
LINE
 8
0
 6
CONTINUOUS
 62
7
 10
-45.625585
 20
-85.799535
 30
0.000000
 11
-45.576333
 21
-85.799535
 31
0.000000
 0
LINE
 8
0
 6
CONTINUOUS
 62
7
 10
-45.576333
 20
-85.799535
 30
0.000000
 11
-45.509745
 21
-85.799535
 31
0.000000
 0
LINE
 8
0
 6
CONTINUOUS
 62
7
 10
-45.509745
 20
-85.799535
 30
0.000000
 11
-45.428089
 21
-85.799535
 31
0.000000
 0
LINE
 8
0
 6
CONTINUOUS
 62
7
 10
-45.428089
 20
-85.799535
 30
0.000000
 11
-45.334145
 21
-85.799535
 31
0.000000
 0
LINE
 8
0
 6
CONTINUOUS
 62
7
 10
-45.334145
 20
-85.799535
 30
0.000000
 11
-45.231112
 21
-85.799535
 31
0.000000
 0
LINE
 8
0
 6
CONTINUOUS
 62
7
 10
-45.122499
 20
-85.799535
 30
0.000000
 11
-45.012004
 21
-85.799535
 31
0.000000
 0
LINE
 8
0
 6
CONTINUOUS
 62
7
 10
-45.231112
 20
-85.799535
 30
0.000000
 11
-45.122499
 21
-85.799535
 31
0.000000
 0
LINE
 8
0
 6
CONTINUOUS
 62
7
 10
-45.012004
 20
-85.799535
 30
0.000000
 11
-44.903391
 21
-85.799535
 31
0.000000
 0
LINE
 8
0
 6
CONTINUOUS
 62
7
 10
-44.903391
 20
-85.799535
 30
0.000000
 11
-44.800358
 21
-85.799535
 31
0.000000
 0
LINE
 8
0
 6
CONTINUOUS
 62
7
 10
-44.800358
 20
-85.799535
 30
0.000000
 11
-44.706414
 21
-85.799535
 31
0.000000
 0
LINE
 8
0
 6
CONTINUOUS
 62
7
 10
-44.706414
 20
-85.799535
 30
0.000000
 11
-44.624758
 21
-85.799535
 31
0.000000
 0
LINE
 8
0
 6
CONTINUOUS
 62
7
 10
-44.624758
 20
-85.799535
 30
0.000000
 11
-44.558170
 21
-85.799535
 31
0.000000
 0
LINE
 8
0
 6
CONTINUOUS
 62
7
 10
-44.558170
 20
-85.799535
 30
0.000000
 11
-44.508918
 21
-85.799535
 31
0.000000
 0
LINE
 8
0
 6
CONTINUOUS
 62
7
 10
-44.508918
 20
-85.799535
 30
0.000000
 11
-44.478680
 21
-85.799535
 31
0.000000
 0
LINE
 8
0
 6
CONTINUOUS
 62
7
 10
-44.478680
 20
-85.799535
 30
0.000000
 11
-44.468485
 21
-85.799535
 31
0.000000
 0
LINE
 8
0
 6
CONTINUOUS
 62
7
 10
-44.467707
 20
-85.799535
 30
0.000000
 11
-44.467707
 21
-86.299535
 31
0.000000
 0
LINE
 8
0
 6
CONTINUOUS
 62
7
 10
-45.666083
 20
-85.799535
 30
0.000000
 11
-45.666083
 21
-86.299535
 31
0.000000
 0
LINE
 8
0
 6
CONTINUOUS
 62
7
 10
-75.987664
 20
-85.799535
 30
0.000000
 11
-75.987664
 21
-86.299535
 31
0.000000
 0
LINE
 8
0
 6
CONTINUOUS
 62
7
 10
-77.186841
 20
-85.799535
 30
0.000000
 11
-77.186841
 21
-86.299535
 31
0.000000
 0
LINE
 8
0
 6
CONTINUOUS
 62
7
 10
-107.468355
 20
-85.799535
 30
0.000000
 11
-107.468355
 21
-86.299535
 31
0.000000
 0
LINE
 8
0
 6
CONTINUOUS
 62
7
 10
-108.666690
 20
-85.799535
 30
0.000000
 11
-108.666690
 21
-86.299535
 31
0.000000
 0
LINE
 8
0
 6
CONTINUOUS
 62
7
 10
-46.333688
 20
-121.332844
 30
0.000000
 11
-46.372546
 21
-121.395603
 31
0.000000
 0
LINE
 8
0
 6
CONTINUOUS
 62
7
 10
-46.283959
 20
-121.278295
 30
0.000000
 11
-46.333688
 21
-121.332844
 31
0.000000
 0
LINE
 8
0
 6
CONTINUOUS
 62
7
 10
-46.225054
 20
-121.233811
 30
0.000000
 11
-46.283959
 21
-121.278295
 31
0.000000
 0
LINE
 8
0
 6
CONTINUOUS
 62
7
 10
-46.372546
 20
-121.395603
 30
0.000000
 11
-46.399211
 21
-121.464433
 31
0.000000
 0
LINE
 8
0
 6
CONTINUOUS
 62
7
 10
-46.399211
 20
-121.464433
 30
0.000000
 11
-46.412774
 21
-121.536991
 31
0.000000
 0
LINE
 8
0
 6
CONTINUOUS
 62
7
 10
-46.412774
 20
-121.536991
 30
0.000000
 11
-46.412774
 21
-121.610806
 31
0.000000
 0
LINE
 8
0
 6
CONTINUOUS
 62
7
 10
-46.412774
 20
-121.610806
 30
0.000000
 11
-46.399211
 21
-121.683364
 31
0.000000
 0
LINE
 8
0
 6
CONTINUOUS
 62
7
 10
-46.399211
 20
-121.683364
 30
0.000000
 11
-46.372546
 21
-121.752194
 31
0.000000
 0
LINE
 8
0
 6
CONTINUOUS
 62
7
 10
-46.372546
 20
-121.752194
 30
0.000000
 11
-46.333688
 21
-121.814952
 31
0.000000
 0
LINE
 8
0
 6
CONTINUOUS
 62
7
 10
-46.333688
 20
-121.814952
 30
0.000000
 11
-46.283959
 21
-121.869502
 31
0.000000
 0
LINE
 8
0
 6
CONTINUOUS
 62
7
 10
-46.283959
 20
-121.869502
 30
0.000000
 11
-46.225054
 21
-121.913985
 31
0.000000
 0
LINE
 8
0
 6
CONTINUOUS
 62
7
 10
-46.225054
 20
-121.913985
 30
0.000000
 11
-46.158977
 21
-121.946887
 31
0.000000
 0
LINE
 8
0
 6
CONTINUOUS
 62
7
 10
-46.158977
 20
-121.946887
 30
0.000000
 11
-46.087980
 21
-121.967088
 31
0.000000
 0
LINE
 8
0
 6
CONTINUOUS
 62
7
 10
-46.087980
 20
-121.967088
 30
0.000000
 11
-46.014481
 21
-121.973898
 31
0.000000
 0
LINE
 8
0
 6
CONTINUOUS
 62
7
 10
-46.014481
 20
-121.973898
 30
0.000000
 11
-45.940981
 21
-121.967088
 31
0.000000
 0
LINE
 8
0
 6
CONTINUOUS
 62
7
 10
-45.940981
 20
-121.967088
 30
0.000000
 11
-45.869984
 21
-121.946887
 31
0.000000
 0
LINE
 8
0
 6
CONTINUOUS
 62
7
 10
-45.869984
 20
-121.946887
 30
0.000000
 11
-45.803908
 21
-121.913985
 31
0.000000
 0
LINE
 8
0
 6
CONTINUOUS
 62
7
 10
-45.803908
 20
-121.913985
 30
0.000000
 11
-45.745002
 21
-121.869502
 31
0.000000
 0
LINE
 8
0
 6
CONTINUOUS
 62
7
 10
-45.745002
 20
-121.869502
 30
0.000000
 11
-45.695274
 21
-121.814952
 31
0.000000
 0
LINE
 8
0
 6
CONTINUOUS
 62
7
 10
-45.695274
 20
-121.814952
 30
0.000000
 11
-45.656415
 21
-121.752194
 31
0.000000
 0
LINE
 8
0
 6
CONTINUOUS
 62
7
 10
-45.656415
 20
-121.752194
 30
0.000000
 11
-45.629750
 21
-121.683364
 31
0.000000
 0
LINE
 8
0
 6
CONTINUOUS
 62
7
 10
-45.629750
 20
-121.683364
 30
0.000000
 11
-45.616187
 21
-121.610806
 31
0.000000
 0
LINE
 8
0
 6
CONTINUOUS
 62
7
 10
-45.616187
 20
-121.610806
 30
0.000000
 11
-45.616187
 21
-121.536991
 31
0.000000
 0
LINE
 8
0
 6
CONTINUOUS
 62
7
 10
-45.616187
 20
-121.536991
 30
0.000000
 11
-45.629750
 21
-121.464433
 31
0.000000
 0
LINE
 8
0
 6
CONTINUOUS
 62
7
 10
-45.629750
 20
-121.464433
 30
0.000000
 11
-45.656415
 21
-121.395603
 31
0.000000
 0
LINE
 8
0
 6
CONTINUOUS
 62
7
 10
-45.656415
 20
-121.395603
 30
0.000000
 11
-45.695274
 21
-121.332844
 31
0.000000
 0
LINE
 8
0
 6
CONTINUOUS
 62
7
 10
-46.158977
 20
-121.200909
 30
0.000000
 11
-46.225054
 21
-121.233811
 31
0.000000
 0
LINE
 8
0
 6
CONTINUOUS
 62
7
 10
-46.087980
 20
-121.180709
 30
0.000000
 11
-46.158977
 21
-121.200909
 31
0.000000
 0
LINE
 8
0
 6
CONTINUOUS
 62
7
 10
-46.014481
 20
-121.173898
 30
0.000000
 11
-46.087980
 21
-121.180709
 31
0.000000
 0
LINE
 8
0
 6
CONTINUOUS
 62
7
 10
-45.940981
 20
-121.180709
 30
0.000000
 11
-46.014481
 21
-121.173898
 31
0.000000
 0
LINE
 8
0
 6
CONTINUOUS
 62
7
 10
-45.869984
 20
-121.200909
 30
0.000000
 11
-45.940981
 21
-121.180709
 31
0.000000
 0
LINE
 8
0
 6
CONTINUOUS
 62
7
 10
-45.803908
 20
-121.233811
 30
0.000000
 11
-45.869984
 21
-121.200909
 31
0.000000
 0
LINE
 8
0
 6
CONTINUOUS
 62
7
 10
-45.745002
 20
-121.278295
 30
0.000000
 11
-45.803908
 21
-121.233811
 31
0.000000
 0
LINE
 8
0
 6
CONTINUOUS
 62
7
 10
-45.695274
 20
-121.332844
 30
0.000000
 11
-45.745002
 21
-121.278295
 31
0.000000
 0
LINE
 8
0
 6
CONTINUOUS
 62
7
 10
-46.014481
 20
-121.973913
 30
0.000000
 11
-46.087982
 21
-121.967102
 31
0.000000
 0
LINE
 8
0
 6
CONTINUOUS
 62
7
 10
-46.087982
 20
-121.967102
 30
0.000000
 11
-46.158980
 21
-121.946902
 31
0.000000
 0
LINE
 8
0
 6
CONTINUOUS
 62
7
 10
-46.158980
 20
-121.946902
 30
0.000000
 11
-46.225057
 21
-121.913999
 31
0.000000
 0
LINE
 8
0
 6
CONTINUOUS
 62
7
 10
-46.225057
 20
-121.913999
 30
0.000000
 11
-46.283964
 21
-121.869515
 31
0.000000
 0
LINE
 8
0
 6
CONTINUOUS
 62
7
 10
-46.283964
 20
-121.869515
 30
0.000000
 11
-46.333694
 21
-121.814964
 31
0.000000
 0
LINE
 8
0
 6
CONTINUOUS
 62
7
 10
-46.333694
 20
-121.814964
 30
0.000000
 11
-46.372553
 21
-121.752205
 31
0.000000
 0
LINE
 8
0
 6
CONTINUOUS
 62
7
 10
-46.372553
 20
-121.752205
 30
0.000000
 11
-46.399218
 21
-121.683373
 31
0.000000
 0
LINE
 8
0
 6
CONTINUOUS
 62
7
 10
-46.399218
 20
-121.683373
 30
0.000000
 11
-46.412782
 21
-121.610814
 31
0.000000
 0
LINE
 8
0
 6
CONTINUOUS
 62
7
 10
-46.412782
 20
-121.610814
 30
0.000000
 11
-46.412782
 21
-121.536998
 31
0.000000
 0
LINE
 8
0
 6
CONTINUOUS
 62
7
 10
-46.412782
 20
-121.536998
 30
0.000000
 11
-46.399218
 21
-121.464439
 31
0.000000
 0
LINE
 8
0
 6
CONTINUOUS
 62
7
 10
-46.399218
 20
-121.464439
 30
0.000000
 11
-46.372553
 21
-121.395607
 31
0.000000
 0
LINE
 8
0
 6
CONTINUOUS
 62
7
 10
-46.384481
 20
-120.933040
 30
0.000000
 11
-46.754481
 21
-121.573898
 31
0.000000
 0
LINE
 8
0
 6
CONTINUOUS
 62
7
 10
-46.372553
 20
-121.395607
 30
0.000000
 11
-46.333694
 21
-121.332847
 31
0.000000
 0
LINE
 8
0
 6
CONTINUOUS
 62
7
 10
-46.333694
 20
-121.332847
 30
0.000000
 11
-46.283964
 21
-121.278297
 31
0.000000
 0
LINE
 8
0
 6
CONTINUOUS
 62
7
 10
-46.283964
 20
-121.278297
 30
0.000000
 11
-46.225057
 21
-121.233813
 31
0.000000
 0
LINE
 8
0
 6
CONTINUOUS
 62
7
 10
-45.644481
 20
-120.933040
 30
0.000000
 11
-46.384481
 21
-120.933040
 31
0.000000
 0
LINE
 8
0
 6
CONTINUOUS
 62
7
 10
-45.803904
 20
-121.233813
 30
0.000000
 11
-45.744997
 21
-121.278297
 31
0.000000
 0
LINE
 8
0
 6
CONTINUOUS
 62
7
 10
-45.744997
 20
-121.278297
 30
0.000000
 11
-45.695268
 21
-121.332847
 31
0.000000
 0
LINE
 8
0
 6
CONTINUOUS
 62
7
 10
-45.695268
 20
-121.332847
 30
0.000000
 11
-45.656409
 21
-121.395607
 31
0.000000
 0
LINE
 8
0
 6
CONTINUOUS
 62
7
 10
-45.274481
 20
-121.573898
 30
0.000000
 11
-45.644481
 21
-120.933040
 31
0.000000
 0
LINE
 8
0
 6
CONTINUOUS
 62
7
 10
-45.656409
 20
-121.395607
 30
0.000000
 11
-45.629743
 21
-121.464439
 31
0.000000
 0
LINE
 8
0
 6
CONTINUOUS
 62
7
 10
-45.629743
 20
-121.464439
 30
0.000000
 11
-45.616179
 21
-121.536998
 31
0.000000
 0
LINE
 8
0
 6
CONTINUOUS
 62
7
 10
-45.616179
 20
-121.536998
 30
0.000000
 11
-45.616179
 21
-121.610814
 31
0.000000
 0
LINE
 8
0
 6
CONTINUOUS
 62
7
 10
-45.616179
 20
-121.610814
 30
0.000000
 11
-45.629743
 21
-121.683373
 31
0.000000
 0
LINE
 8
0
 6
CONTINUOUS
 62
7
 10
-45.629743
 20
-121.683373
 30
0.000000
 11
-45.656409
 21
-121.752205
 31
0.000000
 0
LINE
 8
0
 6
CONTINUOUS
 62
7
 10
-45.656409
 20
-121.752205
 30
0.000000
 11
-45.695268
 21
-121.814964
 31
0.000000
 0
LINE
 8
0
 6
CONTINUOUS
 62
7
 10
-45.695268
 20
-121.814964
 30
0.000000
 11
-45.744997
 21
-121.869515
 31
0.000000
 0
LINE
 8
0
 6
CONTINUOUS
 62
7
 10
-45.744997
 20
-121.869515
 30
0.000000
 11
-45.803904
 21
-121.913999
 31
0.000000
 0
LINE
 8
0
 6
CONTINUOUS
 62
7
 10
-45.803904
 20
-121.913999
 30
0.000000
 11
-45.869981
 21
-121.946902
 31
0.000000
 0
LINE
 8
0
 6
CONTINUOUS
 62
7
 10
-45.869981
 20
-121.946902
 30
0.000000
 11
-45.940979
 21
-121.967102
 31
0.000000
 0
LINE
 8
0
 6
CONTINUOUS
 62
7
 10
-45.940979
 20
-121.967102
 30
0.000000
 11
-46.014481
 21
-121.973913
 31
0.000000
 0
LINE
 8
0
 6
CONTINUOUS
 62
7
 10
-46.384481
 20
-122.214757
 30
0.000000
 11
-45.644481
 21
-122.214757
 31
0.000000
 0
LINE
 8
0
 6
CONTINUOUS
 62
7
 10
-46.754481
 20
-121.573898
 30
0.000000
 11
-46.384481
 21
-122.214757
 31
0.000000
 0
LINE
 8
0
 6
CONTINUOUS
 62
7
 10
-45.644481
 20
-122.214757
 30
0.000000
 11
-45.274481
 21
-121.573898
 31
0.000000
 0
LINE
 8
0
 6
CONTINUOUS
 62
7
 10
-46.333443
 20
-116.431996
 30
0.000000
 11
-46.372302
 21
-116.494754
 31
0.000000
 0
LINE
 8
0
 6
CONTINUOUS
 62
7
 10
-46.283715
 20
-116.377446
 30
0.000000
 11
-46.333443
 21
-116.431996
 31
0.000000
 0
LINE
 8
0
 6
CONTINUOUS
 62
7
 10
-46.224809
 20
-116.332963
 30
0.000000
 11
-46.283715
 21
-116.377446
 31
0.000000
 0
LINE
 8
0
 6
CONTINUOUS
 62
7
 10
-46.372302
 20
-116.494754
 30
0.000000
 11
-46.398967
 21
-116.563584
 31
0.000000
 0
LINE
 8
0
 6
CONTINUOUS
 62
7
 10
-46.398967
 20
-116.563584
 30
0.000000
 11
-46.412530
 21
-116.636142
 31
0.000000
 0
LINE
 8
0
 6
CONTINUOUS
 62
7
 10
-46.412530
 20
-116.636142
 30
0.000000
 11
-46.412530
 21
-116.709957
 31
0.000000
 0
LINE
 8
0
 6
CONTINUOUS
 62
7
 10
-46.412530
 20
-116.709957
 30
0.000000
 11
-46.398967
 21
-116.782515
 31
0.000000
 0
LINE
 8
0
 6
CONTINUOUS
 62
7
 10
-46.398967
 20
-116.782515
 30
0.000000
 11
-46.372302
 21
-116.851345
 31
0.000000
 0
LINE
 8
0
 6
CONTINUOUS
 62
7
 10
-46.372302
 20
-116.851345
 30
0.000000
 11
-46.333443
 21
-116.914103
 31
0.000000
 0
LINE
 8
0
 6
CONTINUOUS
 62
7
 10
-46.333443
 20
-116.914103
 30
0.000000
 11
-46.283715
 21
-116.968653
 31
0.000000
 0
LINE
 8
0
 6
CONTINUOUS
 62
7
 10
-46.283715
 20
-116.968653
 30
0.000000
 11
-46.224809
 21
-117.013136
 31
0.000000
 0
LINE
 8
0
 6
CONTINUOUS
 62
7
 10
-46.224809
 20
-117.013136
 30
0.000000
 11
-46.158733
 21
-117.046039
 31
0.000000
 0
LINE
 8
0
 6
CONTINUOUS
 62
7
 10
-46.158733
 20
-117.046039
 30
0.000000
 11
-46.087736
 21
-117.066239
 31
0.000000
 0
LINE
 8
0
 6
CONTINUOUS
 62
7
 10
-46.087736
 20
-117.066239
 30
0.000000
 11
-46.014236
 21
-117.073050
 31
0.000000
 0
LINE
 8
0
 6
CONTINUOUS
 62
7
 10
-46.014236
 20
-117.073050
 30
0.000000
 11
-45.940736
 21
-117.066239
 31
0.000000
 0
LINE
 8
0
 6
CONTINUOUS
 62
7
 10
-45.940736
 20
-117.066239
 30
0.000000
 11
-45.869740
 21
-117.046039
 31
0.000000
 0
LINE
 8
0
 6
CONTINUOUS
 62
7
 10
-45.869740
 20
-117.046039
 30
0.000000
 11
-45.803663
 21
-117.013136
 31
0.000000
 0
LINE
 8
0
 6
CONTINUOUS
 62
7
 10
-45.803663
 20
-117.013136
 30
0.000000
 11
-45.744758
 21
-116.968653
 31
0.000000
 0
LINE
 8
0
 6
CONTINUOUS
 62
7
 10
-45.744758
 20
-116.968653
 30
0.000000
 11
-45.695029
 21
-116.914103
 31
0.000000
 0
LINE
 8
0
 6
CONTINUOUS
 62
7
 10
-45.695029
 20
-116.914103
 30
0.000000
 11
-45.656171
 21
-116.851345
 31
0.000000
 0
LINE
 8
0
 6
CONTINUOUS
 62
7
 10
-45.656171
 20
-116.851345
 30
0.000000
 11
-45.629506
 21
-116.782515
 31
0.000000
 0
LINE
 8
0
 6
CONTINUOUS
 62
7
 10
-45.629506
 20
-116.782515
 30
0.000000
 11
-45.615943
 21
-116.709957
 31
0.000000
 0
LINE
 8
0
 6
CONTINUOUS
 62
7
 10
-45.615943
 20
-116.709957
 30
0.000000
 11
-45.615943
 21
-116.636142
 31
0.000000
 0
LINE
 8
0
 6
CONTINUOUS
 62
7
 10
-45.615943
 20
-116.636142
 30
0.000000
 11
-45.629506
 21
-116.563584
 31
0.000000
 0
LINE
 8
0
 6
CONTINUOUS
 62
7
 10
-45.629506
 20
-116.563584
 30
0.000000
 11
-45.656171
 21
-116.494754
 31
0.000000
 0
LINE
 8
0
 6
CONTINUOUS
 62
7
 10
-45.656171
 20
-116.494754
 30
0.000000
 11
-45.695029
 21
-116.431996
 31
0.000000
 0
LINE
 8
0
 6
CONTINUOUS
 62
7
 10
-46.158733
 20
-116.300061
 30
0.000000
 11
-46.224809
 21
-116.332963
 31
0.000000
 0
LINE
 8
0
 6
CONTINUOUS
 62
7
 10
-46.087736
 20
-116.279860
 30
0.000000
 11
-46.158733
 21
-116.300061
 31
0.000000
 0
LINE
 8
0
 6
CONTINUOUS
 62
7
 10
-46.014236
 20
-116.273050
 30
0.000000
 11
-46.087736
 21
-116.279860
 31
0.000000
 0
LINE
 8
0
 6
CONTINUOUS
 62
7
 10
-45.940736
 20
-116.279860
 30
0.000000
 11
-46.014236
 21
-116.273050
 31
0.000000
 0
LINE
 8
0
 6
CONTINUOUS
 62
7
 10
-45.869740
 20
-116.300061
 30
0.000000
 11
-45.940736
 21
-116.279860
 31
0.000000
 0
LINE
 8
0
 6
CONTINUOUS
 62
7
 10
-45.803663
 20
-116.332963
 30
0.000000
 11
-45.869740
 21
-116.300061
 31
0.000000
 0
LINE
 8
0
 6
CONTINUOUS
 62
7
 10
-45.744758
 20
-116.377446
 30
0.000000
 11
-45.803663
 21
-116.332963
 31
0.000000
 0
LINE
 8
0
 6
CONTINUOUS
 62
7
 10
-45.695029
 20
-116.431996
 30
0.000000
 11
-45.744758
 21
-116.377446
 31
0.000000
 0
LINE
 8
0
 6
CONTINUOUS
 62
7
 10
-46.014236
 20
-117.073065
 30
0.000000
 11
-46.087737
 21
-117.066254
 31
0.000000
 0
LINE
 8
0
 6
CONTINUOUS
 62
7
 10
-46.087737
 20
-117.066254
 30
0.000000
 11
-46.158736
 21
-117.046053
 31
0.000000
 0
LINE
 8
0
 6
CONTINUOUS
 62
7
 10
-46.158736
 20
-117.046053
 30
0.000000
 11
-46.224813
 21
-117.013150
 31
0.000000
 0
LINE
 8
0
 6
CONTINUOUS
 62
7
 10
-46.224813
 20
-117.013150
 30
0.000000
 11
-46.283720
 21
-116.968666
 31
0.000000
 0
LINE
 8
0
 6
CONTINUOUS
 62
7
 10
-46.283720
 20
-116.968666
 30
0.000000
 11
-46.333449
 21
-116.914116
 31
0.000000
 0
LINE
 8
0
 6
CONTINUOUS
 62
7
 10
-46.333449
 20
-116.914116
 30
0.000000
 11
-46.372308
 21
-116.851356
 31
0.000000
 0
LINE
 8
0
 6
CONTINUOUS
 62
7
 10
-46.372308
 20
-116.851356
 30
0.000000
 11
-46.398974
 21
-116.782524
 31
0.000000
 0
LINE
 8
0
 6
CONTINUOUS
 62
7
 10
-46.398974
 20
-116.782524
 30
0.000000
 11
-46.412537
 21
-116.709965
 31
0.000000
 0
LINE
 8
0
 6
CONTINUOUS
 62
7
 10
-46.412537
 20
-116.709965
 30
0.000000
 11
-46.412537
 21
-116.636149
 31
0.000000
 0
LINE
 8
0
 6
CONTINUOUS
 62
7
 10
-46.412537
 20
-116.636149
 30
0.000000
 11
-46.398974
 21
-116.563590
 31
0.000000
 0
LINE
 8
0
 6
CONTINUOUS
 62
7
 10
-46.398974
 20
-116.563590
 30
0.000000
 11
-46.372308
 21
-116.494758
 31
0.000000
 0
LINE
 8
0
 6
CONTINUOUS
 62
7
 10
-46.384236
 20
-116.032191
 30
0.000000
 11
-46.754236
 21
-116.673050
 31
0.000000
 0
LINE
 8
0
 6
CONTINUOUS
 62
7
 10
-46.372308
 20
-116.494758
 30
0.000000
 11
-46.333449
 21
-116.431999
 31
0.000000
 0
LINE
 8
0
 6
CONTINUOUS
 62
7
 10
-46.333449
 20
-116.431999
 30
0.000000
 11
-46.283720
 21
-116.377448
 31
0.000000
 0
LINE
 8
0
 6
CONTINUOUS
 62
7
 10
-46.283720
 20
-116.377448
 30
0.000000
 11
-46.224813
 21
-116.332964
 31
0.000000
 0
LINE
 8
0
 6
CONTINUOUS
 62
7
 10
-45.644236
 20
-116.032191
 30
0.000000
 11
-46.384236
 21
-116.032191
 31
0.000000
 0
LINE
 8
0
 6
CONTINUOUS
 62
7
 10
-45.803659
 20
-116.332964
 30
0.000000
 11
-45.744753
 21
-116.377448
 31
0.000000
 0
LINE
 8
0
 6
CONTINUOUS
 62
7
 10
-45.744753
 20
-116.377448
 30
0.000000
 11
-45.695023
 21
-116.431999
 31
0.000000
 0
LINE
 8
0
 6
CONTINUOUS
 62
7
 10
-45.695023
 20
-116.431999
 30
0.000000
 11
-45.656164
 21
-116.494758
 31
0.000000
 0
LINE
 8
0
 6
CONTINUOUS
 62
7
 10
-45.274236
 20
-116.673050
 30
0.000000
 11
-45.644236
 21
-116.032191
 31
0.000000
 0
LINE
 8
0
 6
CONTINUOUS
 62
7
 10
-45.656164
 20
-116.494758
 30
0.000000
 11
-45.629499
 21
-116.563590
 31
0.000000
 0
LINE
 8
0
 6
CONTINUOUS
 62
7
 10
-45.629499
 20
-116.563590
 30
0.000000
 11
-45.615935
 21
-116.636149
 31
0.000000
 0
LINE
 8
0
 6
CONTINUOUS
 62
7
 10
-45.615935
 20
-116.636149
 30
0.000000
 11
-45.615935
 21
-116.709965
 31
0.000000
 0
LINE
 8
0
 6
CONTINUOUS
 62
7
 10
-45.615935
 20
-116.709965
 30
0.000000
 11
-45.629499
 21
-116.782524
 31
0.000000
 0
LINE
 8
0
 6
CONTINUOUS
 62
7
 10
-45.629499
 20
-116.782524
 30
0.000000
 11
-45.656164
 21
-116.851356
 31
0.000000
 0
LINE
 8
0
 6
CONTINUOUS
 62
7
 10
-45.656164
 20
-116.851356
 30
0.000000
 11
-45.695023
 21
-116.914116
 31
0.000000
 0
LINE
 8
0
 6
CONTINUOUS
 62
7
 10
-45.695023
 20
-116.914116
 30
0.000000
 11
-45.744753
 21
-116.968666
 31
0.000000
 0
LINE
 8
0
 6
CONTINUOUS
 62
7
 10
-45.744753
 20
-116.968666
 30
0.000000
 11
-45.803659
 21
-117.013150
 31
0.000000
 0
LINE
 8
0
 6
CONTINUOUS
 62
7
 10
-45.803659
 20
-117.013150
 30
0.000000
 11
-45.869737
 21
-117.046053
 31
0.000000
 0
LINE
 8
0
 6
CONTINUOUS
 62
7
 10
-45.869737
 20
-117.046053
 30
0.000000
 11
-45.940735
 21
-117.066254
 31
0.000000
 0
LINE
 8
0
 6
CONTINUOUS
 62
7
 10
-45.940735
 20
-117.066254
 30
0.000000
 11
-46.014236
 21
-117.073065
 31
0.000000
 0
LINE
 8
0
 6
CONTINUOUS
 62
7
 10
-46.384236
 20
-117.313908
 30
0.000000
 11
-45.644236
 21
-117.313908
 31
0.000000
 0
LINE
 8
0
 6
CONTINUOUS
 62
7
 10
-46.754236
 20
-116.673050
 30
0.000000
 11
-46.384236
 21
-117.313908
 31
0.000000
 0
LINE
 8
0
 6
CONTINUOUS
 62
7
 10
-45.644236
 20
-117.313908
 30
0.000000
 11
-45.274236
 21
-116.673050
 31
0.000000
 0
LINE
 8
0
 6
CONTINUOUS
 62
7
 10
-108.862154
 20
-86.499535
 30
0.000000
 11
-44.462152
 21
-86.499535
 31
0.000000
 0
LINE
 8
0
 6
CONTINUOUS
 62
7
 10
-44.462152
 20
-86.499535
 30
0.000000
 11
-44.462152
 21
-94.999911
 31
0.000000
 0
LINE
 8
0
 6
CONTINUOUS
 62
7
 10
-105.862154
 20
-129.499536
 30
0.000000
 11
-47.462152
 21
-124.999536
 31
0.000000
 0
LINE
 8
0
 6
CONTINUOUS
 62
7
 10
-47.462152
 20
-94.999911
 30
0.000000
 11
-47.462152
 21
-101.999536
 31
0.000000
 0
LINE
 8
0
 6
CONTINUOUS
 62
7
 10
-47.462152
 20
-101.999536
 30
0.000000
 11
-47.462152
 21
-124.999536
 31
0.000000
 0
LINE
 8
0
 6
CONTINUOUS
 62
7
 10
-44.462152
 20
-94.999911
 30
0.000000
 11
-47.462152
 21
-94.999911
 31
0.000000
 0
LINE
 8
0
 6
CONTINUOUS
 62
7
 10
-108.862154
 20
-86.499535
 30
0.000000
 11
-108.862154
 21
-94.999911
 31
0.000000
 0
LINE
 8
0
 6
CONTINUOUS
 62
7
 10
-47.462152
 20
-101.999536
 30
0.000000
 11
-105.862154
 21
-101.999536
 31
0.000000
 0
LINE
 8
0
 6
CONTINUOUS
 62
7
 10
-105.862154
 20
-94.999911
 30
0.000000
 11
-108.862154
 21
-94.999911
 31
0.000000
 0
LINE
 8
0
 6
CONTINUOUS
 62
7
 10
-105.862154
 20
-101.999536
 30
0.000000
 11
-105.862154
 21
-94.999911
 31
0.000000
 0
LINE
 8
0
 6
CONTINUOUS
 62
7
 10
-105.862154
 20
-129.499536
 30
0.000000
 11
-105.862154
 21
-101.999536
 31
0.000000
 0
LINE
 8
0
 6
CONTINUOUS
 62
7
 10
-46.464481
 20
-124.999536
 30
0.000000
 11
-45.564481
 21
-124.999536
 31
0.000000
 0
LINE
 8
0
 6
CONTINUOUS
 62
7
 10
-44.462152
 20
-111.633100
 30
0.000000
 11
-44.462152
 21
-94.999911
 31
0.000000
 0
LINE
 8
0
 6
CONTINUOUS
 62
7
 10
-108.862154
 20
-94.999911
 30
0.000000
 11
-108.862154
 21
-111.633101
 31
0.000000
 0
LINE
 8
0
 6
CONTINUOUS
 62
7
 10
-107.759825
 20
-129.499536
 30
0.000000
 11
-106.859825
 21
-129.499536
 31
0.000000
 0
ENDSEC
 0
EOF
