 0
SECTION
 2
HEADER
 0
ENDSEC
 0
SECTION
 2
TABLES
 0
TABLE
 2
LTYPE
 70
1
 0
ENDTAB
 0
TABLE
 2
LAYER
 70
1
 0
LAYER
 2
0
 70
0
 62
7
 6
CONTINUOUS
 0
ENDTAB
 0
TABLE
 2
STYLE
 70
1
 0
STYLE
 2
STANDARD
 70
0
 40
0.500000
 41
1.000000
 50
30.000000
 71
0
 42
0.500000
 3
txt
 4

 0
ENDTAB
 0
ENDSEC
 0
SECTION
 2
ENTITIES
 0
LINE
 8
0
 6
CONTINUOUS
 62
7
 10
-104.954741
 20
69.400588
 30
0.000000
 11
-104.462148
 21
69.469302
 31
0.000000
 0
LINE
 8
0
 6
CONTINUOUS
 62
7
 10
-105.992539
 20
68.616880
 30
0.000000
 11
-105.546890
 21
69.105733
 31
0.000000
 0
LINE
 8
0
 6
CONTINUOUS
 62
7
 10
-105.546890
 20
69.105733
 30
0.000000
 11
-104.954741
 21
69.400588
 31
0.000000
 0
LINE
 8
0
 6
CONTINUOUS
 62
7
 10
-86.062148
 20
65.869302
 30
0.000000
 11
-104.462148
 21
65.869302
 31
0.000000
 0
LINE
 8
0
 6
CONTINUOUS
 62
7
 10
-104.462148
 20
65.869302
 30
0.000000
 11
-104.954741
 21
65.938016
 31
0.000000
 0
LINE
 8
0
 6
CONTINUOUS
 62
7
 10
-104.954741
 20
65.938016
 30
0.000000
 11
-105.546890
 21
66.232871
 31
0.000000
 0
LINE
 8
0
 6
CONTINUOUS
 62
7
 10
-105.546890
 20
66.232871
 30
0.000000
 11
-105.992539
 21
66.721724
 31
0.000000
 0
LINE
 8
0
 6
CONTINUOUS
 62
7
 10
-105.992539
 20
66.721724
 30
0.000000
 11
-106.231499
 21
67.338553
 31
0.000000
 0
LINE
 8
0
 6
CONTINUOUS
 62
7
 10
-106.231499
 20
67.338553
 30
0.000000
 11
-106.231499
 21
68.000051
 31
0.000000
 0
LINE
 8
0
 6
CONTINUOUS
 62
7
 10
-106.231499
 20
68.000051
 30
0.000000
 11
-105.992539
 21
68.616880
 31
0.000000
 0
LINE
 8
0
 6
CONTINUOUS
 62
7
 10
-109.062148
 20
74.169302
 30
0.000000
 11
-109.062148
 21
61.169302
 31
0.000000
 0
LINE
 8
0
 6
CONTINUOUS
 62
7
 10
-85.569555
 20
65.938016
 30
0.000000
 11
-86.062148
 21
65.869302
 31
0.000000
 0
LINE
 8
0
 6
CONTINUOUS
 62
7
 10
-109.062148
 20
61.169302
 30
0.000000
 11
-44.062148
 21
61.169302
 31
0.000000
 0
LINE
 8
0
 6
CONTINUOUS
 62
7
 10
-67.062148
 20
65.869302
 30
0.000000
 11
-67.554742
 21
65.938016
 31
0.000000
 0
LINE
 8
0
 6
CONTINUOUS
 62
7
 10
-67.554742
 20
65.938016
 30
0.000000
 11
-68.146891
 21
66.232871
 31
0.000000
 0
LINE
 8
0
 6
CONTINUOUS
 62
7
 10
-68.146891
 20
66.232871
 30
0.000000
 11
-68.592539
 21
66.721724
 31
0.000000
 0
LINE
 8
0
 6
CONTINUOUS
 62
7
 10
-68.592539
 20
66.721724
 30
0.000000
 11
-68.831500
 21
67.338553
 31
0.000000
 0
LINE
 8
0
 6
CONTINUOUS
 62
7
 10
-68.831500
 20
67.338553
 30
0.000000
 11
-68.831500
 21
68.000051
 31
0.000000
 0
LINE
 8
0
 6
CONTINUOUS
 62
7
 10
-68.831500
 20
68.000051
 30
0.000000
 11
-68.592539
 21
68.616880
 31
0.000000
 0
LINE
 8
0
 6
CONTINUOUS
 62
7
 10
-68.592539
 20
68.616880
 30
0.000000
 11
-68.146891
 21
69.105733
 31
0.000000
 0
LINE
 8
0
 6
CONTINUOUS
 62
7
 10
-68.146891
 20
69.105733
 30
0.000000
 11
-67.554742
 21
69.400588
 31
0.000000
 0
LINE
 8
0
 6
CONTINUOUS
 62
7
 10
-67.554742
 20
69.400588
 30
0.000000
 11
-67.062148
 21
69.469302
 31
0.000000
 0
LINE
 8
0
 6
CONTINUOUS
 62
7
 10
-67.062148
 20
69.469302
 30
0.000000
 11
-48.662148
 21
69.469302
 31
0.000000
 0
LINE
 8
0
 6
CONTINUOUS
 62
7
 10
-48.662148
 20
69.469302
 30
0.000000
 11
-48.169555
 21
69.400588
 31
0.000000
 0
LINE
 8
0
 6
CONTINUOUS
 62
7
 10
-48.169555
 20
69.400588
 30
0.000000
 11
-47.577406
 21
69.105733
 31
0.000000
 0
LINE
 8
0
 6
CONTINUOUS
 62
7
 10
-47.577406
 20
69.105733
 30
0.000000
 11
-47.131758
 21
68.616880
 31
0.000000
 0
LINE
 8
0
 6
CONTINUOUS
 62
7
 10
-47.131758
 20
68.616880
 30
0.000000
 11
-46.892797
 21
68.000051
 31
0.000000
 0
LINE
 8
0
 6
CONTINUOUS
 62
7
 10
-44.062148
 20
61.169302
 30
0.000000
 11
-44.062148
 21
74.169302
 31
0.000000
 0
LINE
 8
0
 6
CONTINUOUS
 62
7
 10
-46.892797
 20
68.000051
 30
0.000000
 11
-46.892797
 21
67.338553
 31
0.000000
 0
LINE
 8
0
 6
CONTINUOUS
 62
7
 10
-46.892797
 20
67.338553
 30
0.000000
 11
-47.131758
 21
66.721724
 31
0.000000
 0
LINE
 8
0
 6
CONTINUOUS
 62
7
 10
-47.131758
 20
66.721724
 30
0.000000
 11
-47.577406
 21
66.232871
 31
0.000000
 0
LINE
 8
0
 6
CONTINUOUS
 62
7
 10
-47.577406
 20
66.232871
 30
0.000000
 11
-48.169555
 21
65.938016
 31
0.000000
 0
LINE
 8
0
 6
CONTINUOUS
 62
7
 10
-48.169555
 20
65.938016
 30
0.000000
 11
-48.662148
 21
65.869302
 31
0.000000
 0
LINE
 8
0
 6
CONTINUOUS
 62
7
 10
-48.662148
 20
65.869302
 30
0.000000
 11
-67.062148
 21
65.869302
 31
0.000000
 0
LINE
 8
0
 6
CONTINUOUS
 62
7
 10
-84.977406
 20
66.232871
 30
0.000000
 11
-85.569555
 21
65.938016
 31
0.000000
 0
LINE
 8
0
 6
CONTINUOUS
 62
7
 10
-79.262148
 20
65.869302
 30
0.000000
 11
-79.754741
 21
65.938016
 31
0.000000
 0
LINE
 8
0
 6
CONTINUOUS
 62
7
 10
-84.531757
 20
66.721724
 30
0.000000
 11
-84.977406
 21
66.232871
 31
0.000000
 0
LINE
 8
0
 6
CONTINUOUS
 62
7
 10
-79.754741
 20
65.938016
 30
0.000000
 11
-80.346890
 21
66.232871
 31
0.000000
 0
LINE
 8
0
 6
CONTINUOUS
 62
7
 10
-84.292796
 20
67.338553
 30
0.000000
 11
-84.531757
 21
66.721724
 31
0.000000
 0
LINE
 8
0
 6
CONTINUOUS
 62
7
 10
-80.346890
 20
66.232871
 30
0.000000
 11
-80.792539
 21
66.721724
 31
0.000000
 0
LINE
 8
0
 6
CONTINUOUS
 62
7
 10
-44.062148
 20
74.169302
 30
0.000000
 11
-109.062148
 21
74.169302
 31
0.000000
 0
LINE
 8
0
 6
CONTINUOUS
 62
7
 10
-86.062148
 20
69.469302
 30
0.000000
 11
-85.569555
 21
69.400588
 31
0.000000
 0
LINE
 8
0
 6
CONTINUOUS
 62
7
 10
-85.569555
 20
69.400588
 30
0.000000
 11
-84.977406
 21
69.105733
 31
0.000000
 0
LINE
 8
0
 6
CONTINUOUS
 62
7
 10
-84.977406
 20
69.105733
 30
0.000000
 11
-84.531757
 21
68.616880
 31
0.000000
 0
LINE
 8
0
 6
CONTINUOUS
 62
7
 10
-84.531757
 20
68.616880
 30
0.000000
 11
-84.292796
 21
68.000051
 31
0.000000
 0
LINE
 8
0
 6
CONTINUOUS
 62
7
 10
-84.292796
 20
68.000051
 30
0.000000
 11
-84.292796
 21
67.338553
 31
0.000000
 0
LINE
 8
0
 6
CONTINUOUS
 62
7
 10
-80.792539
 20
66.721724
 30
0.000000
 11
-81.031500
 21
67.338553
 31
0.000000
 0
LINE
 8
0
 6
CONTINUOUS
 62
7
 10
-73.862148
 20
69.469302
 30
0.000000
 11
-73.369555
 21
69.400588
 31
0.000000
 0
LINE
 8
0
 6
CONTINUOUS
 62
7
 10
-73.369555
 20
69.400588
 30
0.000000
 11
-72.777406
 21
69.105733
 31
0.000000
 0
LINE
 8
0
 6
CONTINUOUS
 62
7
 10
-72.777406
 20
69.105733
 30
0.000000
 11
-72.331757
 21
68.616880
 31
0.000000
 0
LINE
 8
0
 6
CONTINUOUS
 62
7
 10
-72.331757
 20
68.616880
 30
0.000000
 11
-72.092797
 21
68.000051
 31
0.000000
 0
LINE
 8
0
 6
CONTINUOUS
 62
7
 10
-72.092797
 20
68.000051
 30
0.000000
 11
-72.092797
 21
67.338553
 31
0.000000
 0
LINE
 8
0
 6
CONTINUOUS
 62
7
 10
-72.092797
 20
67.338553
 30
0.000000
 11
-72.331757
 21
66.721724
 31
0.000000
 0
LINE
 8
0
 6
CONTINUOUS
 62
7
 10
-72.331757
 20
66.721724
 30
0.000000
 11
-72.777406
 21
66.232871
 31
0.000000
 0
LINE
 8
0
 6
CONTINUOUS
 62
7
 10
-72.777406
 20
66.232871
 30
0.000000
 11
-73.369555
 21
65.938016
 31
0.000000
 0
LINE
 8
0
 6
CONTINUOUS
 62
7
 10
-73.369555
 20
65.938016
 30
0.000000
 11
-73.862148
 21
65.869302
 31
0.000000
 0
LINE
 8
0
 6
CONTINUOUS
 62
7
 10
-73.862148
 20
65.869302
 30
0.000000
 11
-79.262148
 21
65.869302
 31
0.000000
 0
LINE
 8
0
 6
CONTINUOUS
 62
7
 10
-81.031500
 20
67.338553
 30
0.000000
 11
-81.031500
 21
68.000051
 31
0.000000
 0
LINE
 8
0
 6
CONTINUOUS
 62
7
 10
-81.031500
 20
68.000051
 30
0.000000
 11
-80.792539
 21
68.616880
 31
0.000000
 0
LINE
 8
0
 6
CONTINUOUS
 62
7
 10
-80.792539
 20
68.616880
 30
0.000000
 11
-80.346890
 21
69.105733
 31
0.000000
 0
LINE
 8
0
 6
CONTINUOUS
 62
7
 10
-80.346890
 20
69.105733
 30
0.000000
 11
-79.754741
 21
69.400588
 31
0.000000
 0
LINE
 8
0
 6
CONTINUOUS
 62
7
 10
-79.754741
 20
69.400588
 30
0.000000
 11
-79.262148
 21
69.469302
 31
0.000000
 0
LINE
 8
0
 6
CONTINUOUS
 62
7
 10
-104.462148
 20
69.469302
 30
0.000000
 11
-86.062148
 21
69.469302
 31
0.000000
 0
LINE
 8
0
 6
CONTINUOUS
 62
7
 10
-79.262148
 20
69.469302
 30
0.000000
 11
-73.862148
 21
69.469302
 31
0.000000
 0
LINE
 8
0
 6
CONTINUOUS
 62
7
 10
-48.462148
 20
74.169303
 30
0.000000
 11
-44.162148
 21
74.169303
 31
0.000000
 0
LINE
 8
0
 6
CONTINUOUS
 62
7
 10
-44.162148
 20
74.169303
 30
0.000000
 11
-44.162148
 21
74.169302
 31
0.000000
 0
LINE
 8
0
 6
CONTINUOUS
 62
7
 10
-48.462148
 20
74.169302
 30
0.000000
 11
-48.462148
 21
74.169303
 31
0.000000
 0
LINE
 8
0
 6
CONTINUOUS
 62
7
 10
-99.458979
 20
58.994753
 30
0.000000
 11
-99.395185
 21
58.994753
 31
0.000000
 0
LINE
 8
0
 6
CONTINUOUS
 62
7
 10
-99.562884
 20
58.994753
 30
0.000000
 11
-99.458979
 21
58.994753
 31
0.000000
 0
LINE
 8
0
 6
CONTINUOUS
 62
7
 10
-99.395185
 20
58.994753
 30
0.000000
 11
-99.373677
 21
58.994753
 31
0.000000
 0
LINE
 8
0
 6
CONTINUOUS
 62
7
 10
-101.900100
 20
58.994753
 30
0.000000
 11
-101.878592
 21
58.994753
 31
0.000000
 0
LINE
 8
0
 6
CONTINUOUS
 62
7
 10
-101.878592
 20
58.994753
 30
0.000000
 11
-101.814799
 21
58.994753
 31
0.000000
 0
LINE
 8
0
 6
CONTINUOUS
 62
7
 10
-101.814799
 20
58.994753
 30
0.000000
 11
-101.710893
 21
58.994753
 31
0.000000
 0
LINE
 8
0
 6
CONTINUOUS
 62
7
 10
-101.710893
 20
58.994753
 30
0.000000
 11
-101.570413
 21
58.994753
 31
0.000000
 0
LINE
 8
0
 6
CONTINUOUS
 62
7
 10
-101.570413
 20
58.994753
 30
0.000000
 11
-101.398144
 21
58.994753
 31
0.000000
 0
LINE
 8
0
 6
CONTINUOUS
 62
7
 10
-101.398144
 20
58.994753
 30
0.000000
 11
-101.199951
 21
58.994753
 31
0.000000
 0
LINE
 8
0
 6
CONTINUOUS
 62
7
 10
-101.199951
 20
58.994753
 30
0.000000
 11
-100.982583
 21
58.994753
 31
0.000000
 0
LINE
 8
0
 6
CONTINUOUS
 62
7
 10
-100.982583
 20
58.994753
 30
0.000000
 11
-100.753443
 21
58.994753
 31
0.000000
 0
LINE
 8
0
 6
CONTINUOUS
 62
7
 10
-100.753443
 20
58.994753
 30
0.000000
 11
-100.520334
 21
58.994753
 31
0.000000
 0
LINE
 8
0
 6
CONTINUOUS
 62
7
 10
-100.520334
 20
58.994753
 30
0.000000
 11
-100.291194
 21
58.994753
 31
0.000000
 0
LINE
 8
0
 6
CONTINUOUS
 62
7
 10
-100.291194
 20
58.994753
 30
0.000000
 11
-100.073827
 21
58.994753
 31
0.000000
 0
LINE
 8
0
 6
CONTINUOUS
 62
7
 10
-100.073827
 20
58.994753
 30
0.000000
 11
-99.875633
 21
58.994753
 31
0.000000
 0
LINE
 8
0
 6
CONTINUOUS
 62
7
 10
-99.875633
 20
58.994753
 30
0.000000
 11
-99.703364
 21
58.994753
 31
0.000000
 0
LINE
 8
0
 6
CONTINUOUS
 62
7
 10
-99.703364
 20
58.994753
 30
0.000000
 11
-99.562884
 21
58.994753
 31
0.000000
 0
LINE
 8
0
 6
CONTINUOUS
 62
7
 10
-101.502958
 20
61.099720
 30
0.000000
 11
-102.377958
 21
61.099720
 31
0.000000
 0
LINE
 8
0
 6
CONTINUOUS
 62
7
 10
-99.752959
 20
61.099720
 30
0.000000
 11
-101.502958
 21
61.099720
 31
0.000000
 0
LINE
 8
0
 6
CONTINUOUS
 62
7
 10
-98.877959
 20
61.099720
 30
0.000000
 11
-99.752959
 21
61.099720
 31
0.000000
 0
LINE
 8
0
 6
CONTINUOUS
 62
7
 10
-99.373677
 20
58.994753
 30
0.000000
 11
-99.373677
 21
61.099720
 31
0.000000
 0
LINE
 8
0
 6
CONTINUOUS
 62
7
 10
-101.900100
 20
58.994753
 30
0.000000
 11
-101.900100
 21
61.099720
 31
0.000000
 0
LINE
 8
0
 6
CONTINUOUS
 62
7
 10
-99.752959
 20
61.169302
 30
0.000000
 11
-99.752959
 21
61.099720
 31
0.000000
 0
LINE
 8
0
 6
CONTINUOUS
 62
7
 10
-98.877959
 20
61.169302
 30
0.000000
 11
-98.877959
 21
61.099720
 31
0.000000
 0
LINE
 8
0
 6
CONTINUOUS
 62
7
 10
-102.377958
 20
61.169302
 30
0.000000
 11
-102.377958
 21
61.099720
 31
0.000000
 0
LINE
 8
0
 6
CONTINUOUS
 62
7
 10
-101.502958
 20
61.099720
 30
0.000000
 11
-101.502958
 21
61.169302
 31
0.000000
 0
LINE
 8
0
 6
CONTINUOUS
 62
7
 10
-109.162148
 20
70.969303
 30
0.000000
 11
-109.162148
 21
74.169303
 31
0.000000
 0
LINE
 8
0
 6
CONTINUOUS
 62
7
 10
-109.162148
 20
61.169303
 30
0.000000
 11
-109.162148
 21
64.369303
 31
0.000000
 0
LINE
 8
0
 6
CONTINUOUS
 62
7
 10
-109.162148
 20
64.369303
 30
0.000000
 11
-109.162148
 21
70.969303
 31
0.000000
 0
LINE
 8
0
 6
CONTINUOUS
 62
7
 10
-109.162148
 20
74.169303
 30
0.000000
 11
-104.862148
 21
74.169303
 31
0.000000
 0
LINE
 8
0
 6
CONTINUOUS
 62
7
 10
-109.062148
 20
70.969303
 30
0.000000
 11
-109.162148
 21
70.969303
 31
0.000000
 0
LINE
 8
0
 6
CONTINUOUS
 62
7
 10
-109.162148
 20
64.369303
 30
0.000000
 11
-109.062148
 21
64.369303
 31
0.000000
 0
LINE
 8
0
 6
CONTINUOUS
 62
7
 10
-109.062148
 20
61.169303
 30
0.000000
 11
-109.162148
 21
61.169303
 31
0.000000
 0
LINE
 8
0
 6
CONTINUOUS
 62
7
 10
-104.862148
 20
74.169303
 30
0.000000
 11
-104.862148
 21
74.169302
 31
0.000000
 0
LINE
 8
0
 6
CONTINUOUS
 62
7
 10
-109.162148
 20
61.169303
 30
0.000000
 11
-109.162148
 21
64.369303
 31
0.000000
 0
LINE
 8
0
 6
CONTINUOUS
 62
7
 10
-109.162148
 20
64.369303
 30
0.000000
 11
-109.162148
 21
70.969304
 31
0.000000
 0
LINE
 8
0
 6
CONTINUOUS
 62
7
 10
-109.162148
 20
70.969304
 30
0.000000
 11
-109.162148
 21
74.169303
 31
0.000000
 0
LINE
 8
0
 6
CONTINUOUS
 62
7
 10
-44.052767
 20
71.123050
 30
0.000000
 11
-44.051376
 21
71.182923
 31
0.000000
 0
LINE
 8
0
 6
CONTINUOUS
 62
7
 10
-44.051376
 20
71.182923
 30
0.000000
 11
-44.051376
 21
74.169302
 31
0.000000
 0
LINE
 8
0
 6
CONTINUOUS
 62
7
 10
-109.062148
 20
74.169302
 30
0.000000
 11
-109.062148
 21
71.387654
 31
0.000000
 0
LINE
 8
0
 6
CONTINUOUS
 62
7
 10
-44.062148
 20
71.055941
 30
0.000000
 11
-44.052767
 21
71.123050
 31
0.000000
 0
LINE
 8
0
 6
CONTINUOUS
 62
7
 10
-44.051376
 20
74.169302
 30
0.000000
 11
-44.062148
 21
74.169302
 31
0.000000
 0
LINE
 8
0
 6
CONTINUOUS
 62
7
 10
-44.051376
 20
61.169302
 30
0.000000
 11
-44.051376
 21
64.155681
 31
0.000000
 0
LINE
 8
0
 6
CONTINUOUS
 62
7
 10
-109.062148
 20
63.950950
 30
0.000000
 11
-109.062148
 21
61.169302
 31
0.000000
 0
LINE
 8
0
 6
CONTINUOUS
 62
7
 10
-44.051376
 20
64.155681
 30
0.000000
 11
-44.062148
 21
64.271938
 31
0.000000
 0
LINE
 8
0
 6
CONTINUOUS
 62
7
 10
-44.062148
 20
61.169302
 30
0.000000
 11
-44.051376
 21
61.169302
 31
0.000000
 0
LINE
 8
0
 6
CONTINUOUS
 62
7
 10
-92.345658
 20
58.994753
 30
0.000000
 11
-92.281865
 21
58.994753
 31
0.000000
 0
LINE
 8
0
 6
CONTINUOUS
 62
7
 10
-92.449564
 20
58.994753
 30
0.000000
 11
-92.345658
 21
58.994753
 31
0.000000
 0
LINE
 8
0
 6
CONTINUOUS
 62
7
 10
-92.281865
 20
58.994753
 30
0.000000
 11
-92.260356
 21
58.994753
 31
0.000000
 0
LINE
 8
0
 6
CONTINUOUS
 62
7
 10
-94.786780
 20
58.994753
 30
0.000000
 11
-94.765271
 21
58.994753
 31
0.000000
 0
LINE
 8
0
 6
CONTINUOUS
 62
7
 10
-94.765271
 20
58.994753
 30
0.000000
 11
-94.701478
 21
58.994753
 31
0.000000
 0
LINE
 8
0
 6
CONTINUOUS
 62
7
 10
-94.701478
 20
58.994753
 30
0.000000
 11
-94.597573
 21
58.994753
 31
0.000000
 0
LINE
 8
0
 6
CONTINUOUS
 62
7
 10
-94.597573
 20
58.994753
 30
0.000000
 11
-94.457093
 21
58.994753
 31
0.000000
 0
LINE
 8
0
 6
CONTINUOUS
 62
7
 10
-94.457093
 20
58.994753
 30
0.000000
 11
-94.284823
 21
58.994753
 31
0.000000
 0
LINE
 8
0
 6
CONTINUOUS
 62
7
 10
-94.284823
 20
58.994753
 30
0.000000
 11
-94.086630
 21
58.994753
 31
0.000000
 0
LINE
 8
0
 6
CONTINUOUS
 62
7
 10
-94.086630
 20
58.994753
 30
0.000000
 11
-93.869262
 21
58.994753
 31
0.000000
 0
LINE
 8
0
 6
CONTINUOUS
 62
7
 10
-93.869262
 20
58.994753
 30
0.000000
 11
-93.640123
 21
58.994753
 31
0.000000
 0
LINE
 8
0
 6
CONTINUOUS
 62
7
 10
-93.640123
 20
58.994753
 30
0.000000
 11
-93.407014
 21
58.994753
 31
0.000000
 0
LINE
 8
0
 6
CONTINUOUS
 62
7
 10
-93.407014
 20
58.994753
 30
0.000000
 11
-93.177874
 21
58.994753
 31
0.000000
 0
LINE
 8
0
 6
CONTINUOUS
 62
7
 10
-93.177874
 20
58.994753
 30
0.000000
 11
-92.960506
 21
58.994753
 31
0.000000
 0
LINE
 8
0
 6
CONTINUOUS
 62
7
 10
-92.960506
 20
58.994753
 30
0.000000
 11
-92.762313
 21
58.994753
 31
0.000000
 0
LINE
 8
0
 6
CONTINUOUS
 62
7
 10
-92.762313
 20
58.994753
 30
0.000000
 11
-92.590043
 21
58.994753
 31
0.000000
 0
LINE
 8
0
 6
CONTINUOUS
 62
7
 10
-92.590043
 20
58.994753
 30
0.000000
 11
-92.449564
 21
58.994753
 31
0.000000
 0
LINE
 8
0
 6
CONTINUOUS
 62
7
 10
-94.389638
 20
61.099720
 30
0.000000
 11
-95.264638
 21
61.099720
 31
0.000000
 0
LINE
 8
0
 6
CONTINUOUS
 62
7
 10
-92.639638
 20
61.099720
 30
0.000000
 11
-94.389638
 21
61.099720
 31
0.000000
 0
LINE
 8
0
 6
CONTINUOUS
 62
7
 10
-91.764638
 20
61.099720
 30
0.000000
 11
-92.639638
 21
61.099720
 31
0.000000
 0
LINE
 8
0
 6
CONTINUOUS
 62
7
 10
-92.260356
 20
58.994753
 30
0.000000
 11
-92.260356
 21
61.099720
 31
0.000000
 0
LINE
 8
0
 6
CONTINUOUS
 62
7
 10
-94.786780
 20
58.994753
 30
0.000000
 11
-94.786780
 21
61.099720
 31
0.000000
 0
LINE
 8
0
 6
CONTINUOUS
 62
7
 10
-92.639638
 20
61.169302
 30
0.000000
 11
-92.639638
 21
61.099720
 31
0.000000
 0
LINE
 8
0
 6
CONTINUOUS
 62
7
 10
-91.764638
 20
61.169302
 30
0.000000
 11
-91.764638
 21
61.099720
 31
0.000000
 0
LINE
 8
0
 6
CONTINUOUS
 62
7
 10
-95.264638
 20
61.169302
 30
0.000000
 11
-95.264638
 21
61.099720
 31
0.000000
 0
LINE
 8
0
 6
CONTINUOUS
 62
7
 10
-94.389638
 20
61.099720
 30
0.000000
 11
-94.389638
 21
61.169302
 31
0.000000
 0
LINE
 8
0
 6
CONTINUOUS
 62
7
 10
-85.345658
 20
58.994753
 30
0.000000
 11
-85.281865
 21
58.994753
 31
0.000000
 0
LINE
 8
0
 6
CONTINUOUS
 62
7
 10
-85.449564
 20
58.994753
 30
0.000000
 11
-85.345658
 21
58.994753
 31
0.000000
 0
LINE
 8
0
 6
CONTINUOUS
 62
7
 10
-85.281865
 20
58.994753
 30
0.000000
 11
-85.260356
 21
58.994753
 31
0.000000
 0
LINE
 8
0
 6
CONTINUOUS
 62
7
 10
-87.786780
 20
58.994753
 30
0.000000
 11
-87.765272
 21
58.994753
 31
0.000000
 0
LINE
 8
0
 6
CONTINUOUS
 62
7
 10
-87.765272
 20
58.994753
 30
0.000000
 11
-87.701478
 21
58.994753
 31
0.000000
 0
LINE
 8
0
 6
CONTINUOUS
 62
7
 10
-87.701478
 20
58.994753
 30
0.000000
 11
-87.597573
 21
58.994753
 31
0.000000
 0
LINE
 8
0
 6
CONTINUOUS
 62
7
 10
-87.597573
 20
58.994753
 30
0.000000
 11
-87.457093
 21
58.994753
 31
0.000000
 0
LINE
 8
0
 6
CONTINUOUS
 62
7
 10
-87.457093
 20
58.994753
 30
0.000000
 11
-87.284823
 21
58.994753
 31
0.000000
 0
LINE
 8
0
 6
CONTINUOUS
 62
7
 10
-87.284823
 20
58.994753
 30
0.000000
 11
-87.086630
 21
58.994753
 31
0.000000
 0
LINE
 8
0
 6
CONTINUOUS
 62
7
 10
-87.086630
 20
58.994753
 30
0.000000
 11
-86.869263
 21
58.994753
 31
0.000000
 0
LINE
 8
0
 6
CONTINUOUS
 62
7
 10
-86.869263
 20
58.994753
 30
0.000000
 11
-86.640123
 21
58.994753
 31
0.000000
 0
LINE
 8
0
 6
CONTINUOUS
 62
7
 10
-86.640123
 20
58.994753
 30
0.000000
 11
-86.407014
 21
58.994753
 31
0.000000
 0
LINE
 8
0
 6
CONTINUOUS
 62
7
 10
-86.407014
 20
58.994753
 30
0.000000
 11
-86.177874
 21
58.994753
 31
0.000000
 0
LINE
 8
0
 6
CONTINUOUS
 62
7
 10
-86.177874
 20
58.994753
 30
0.000000
 11
-85.960506
 21
58.994753
 31
0.000000
 0
LINE
 8
0
 6
CONTINUOUS
 62
7
 10
-85.960506
 20
58.994753
 30
0.000000
 11
-85.762313
 21
58.994753
 31
0.000000
 0
LINE
 8
0
 6
CONTINUOUS
 62
7
 10
-85.762313
 20
58.994753
 30
0.000000
 11
-85.590043
 21
58.994753
 31
0.000000
 0
LINE
 8
0
 6
CONTINUOUS
 62
7
 10
-85.590043
 20
58.994753
 30
0.000000
 11
-85.449564
 21
58.994753
 31
0.000000
 0
LINE
 8
0
 6
CONTINUOUS
 62
7
 10
-87.389638
 20
61.099720
 30
0.000000
 11
-88.264638
 21
61.099720
 31
0.000000
 0
LINE
 8
0
 6
CONTINUOUS
 62
7
 10
-85.639638
 20
61.099720
 30
0.000000
 11
-87.389638
 21
61.099720
 31
0.000000
 0
LINE
 8
0
 6
CONTINUOUS
 62
7
 10
-84.764638
 20
61.099720
 30
0.000000
 11
-85.639638
 21
61.099720
 31
0.000000
 0
LINE
 8
0
 6
CONTINUOUS
 62
7
 10
-85.260356
 20
58.994753
 30
0.000000
 11
-85.260356
 21
61.099720
 31
0.000000
 0
LINE
 8
0
 6
CONTINUOUS
 62
7
 10
-87.786780
 20
58.994753
 30
0.000000
 11
-87.786780
 21
61.099720
 31
0.000000
 0
LINE
 8
0
 6
CONTINUOUS
 62
7
 10
-85.639638
 20
61.169302
 30
0.000000
 11
-85.639638
 21
61.099720
 31
0.000000
 0
LINE
 8
0
 6
CONTINUOUS
 62
7
 10
-84.764638
 20
61.169302
 30
0.000000
 11
-84.764638
 21
61.099720
 31
0.000000
 0
LINE
 8
0
 6
CONTINUOUS
 62
7
 10
-88.264638
 20
61.169302
 30
0.000000
 11
-88.264638
 21
61.099720
 31
0.000000
 0
LINE
 8
0
 6
CONTINUOUS
 62
7
 10
-87.389638
 20
61.099720
 30
0.000000
 11
-87.389638
 21
61.169302
 31
0.000000
 0
ENDSEC
 0
EOF
