 0
SECTION
 2
HEADER
 0
ENDSEC
 0
SECTION
 2
TABLES
 0
TABLE
 2
LTYPE
 70
1
 0
ENDTAB
 0
TABLE
 2
LAYER
 70
1
 0
LAYER
 2
0
 70
0
 62
7
 6
CONTINUOUS
 0
ENDTAB
 0
TABLE
 2
STYLE
 70
1
 0
STYLE
 2
STANDARD
 70
0
 40
0.500000
 41
1.000000
 50
30.000000
 71
0
 42
0.500000
 3
txt
 4

 0
ENDTAB
 0
ENDSEC
 0
SECTION
 2
ENTITIES
 0
LINE
 8
0
 6
CONTINUOUS
 62
7
 10
-138.559747
 20
-85.600000
 30
0.000000
 11
-138.559747
 21
-85.300000
 31
0.000000
 0
LINE
 8
0
 6
CONTINUOUS
 62
7
 10
-142.059747
 20
-85.600000
 30
0.000000
 11
-138.559747
 21
-85.600000
 31
0.000000
 0
LINE
 8
0
 6
CONTINUOUS
 62
7
 10
-151.559747
 20
-85.300000
 30
0.000000
 11
-151.559747
 21
-85.600000
 31
0.000000
 0
LINE
 8
0
 6
CONTINUOUS
 62
7
 10
-151.559747
 20
-85.600000
 30
0.000000
 11
-148.059747
 21
-85.600000
 31
0.000000
 0
LINE
 8
0
 6
CONTINUOUS
 62
7
 10
-142.359747
 20
-85.300000
 30
0.000000
 11
-151.559747
 21
-85.300000
 31
0.000000
 0
LINE
 8
0
 6
CONTINUOUS
 62
7
 10
-142.059747
 20
-109.133100
 30
0.000000
 11
-142.059747
 21
-85.600000
 31
0.000000
 0
LINE
 8
0
 6
CONTINUOUS
 62
7
 10
-142.359747
 20
-85.300000
 30
0.000000
 11
-142.358766
 21
-109.133100
 31
0.000000
 0
LINE
 8
0
 6
CONTINUOUS
 62
7
 10
-138.559747
 20
-85.300000
 30
0.000000
 11
-142.359747
 21
-85.300000
 31
0.000000
 0
LINE
 8
0
 6
CONTINUOUS
 62
7
 10
-148.059747
 20
-85.600000
 30
0.000000
 11
-148.059747
 21
-109.133101
 31
0.000000
 0
LINE
 8
0
 6
CONTINUOUS
 62
7
 10
-147.760728
 20
-109.133100
 30
0.000000
 11
-147.759747
 21
-85.300475
 31
0.000000
 0
LINE
 8
0
 6
CONTINUOUS
 62
7
 10
-147.759747
 20
-85.300475
 30
0.000000
 11
-147.759747
 21
-109.133100
 31
0.000000
 0
LINE
 8
0
 6
CONTINUOUS
 62
7
 10
-142.359747
 20
-109.133100
 30
0.000000
 11
-142.359747
 21
-85.300000
 31
0.000000
 0
LINE
 8
0
 6
CONTINUOUS
 62
7
 10
-141.759740
 20
-138.300001
 30
0.000000
 11
-141.759740
 21
-113.303100
 31
0.000000
 0
LINE
 8
0
 6
CONTINUOUS
 62
7
 10
-141.759740
 20
-113.303100
 30
0.000000
 11
-141.759736
 21
-113.303100
 31
0.000000
 0
LINE
 8
0
 6
CONTINUOUS
 62
7
 10
-141.759736
 20
-138.300001
 30
0.000000
 11
-141.759740
 21
-138.300001
 31
0.000000
 0
LINE
 8
0
 6
CONTINUOUS
 62
7
 10
-148.359729
 20
-109.133100
 30
0.000000
 11
-148.359747
 21
-109.133100
 31
0.000000
 0
LINE
 8
0
 6
CONTINUOUS
 62
7
 10
-142.059747
 20
-109.133100
 30
0.000000
 11
-148.059747
 21
-109.133100
 31
0.000000
 0
LINE
 8
0
 6
CONTINUOUS
 62
7
 10
-141.759747
 20
-109.133100
 30
0.000000
 11
-141.759729
 21
-109.133100
 31
0.000000
 0
LINE
 8
0
 6
CONTINUOUS
 62
7
 10
-142.059729
 20
-109.133100
 30
0.000000
 11
-142.059747
 21
-109.133100
 31
0.000000
 0
LINE
 8
0
 6
CONTINUOUS
 62
7
 10
-141.759729
 20
-149.700001
 30
0.000000
 11
-141.759747
 21
-149.700001
 31
0.000000
 0
LINE
 8
0
 6
CONTINUOUS
 62
7
 10
-141.422453
 20
-149.700001
 30
0.000000
 11
-141.423122
 21
-149.700001
 31
0.000000
 0
LINE
 8
0
 6
CONTINUOUS
 62
7
 10
-141.380275
 20
-149.700001
 30
0.000000
 11
-141.422453
 21
-149.700001
 31
0.000000
 0
LINE
 8
0
 6
CONTINUOUS
 62
7
 10
-141.334510
 20
-149.700001
 30
0.000000
 11
-141.380275
 21
-149.700001
 31
0.000000
 0
LINE
 8
0
 6
CONTINUOUS
 62
7
 10
-141.286543
 20
-149.700001
 30
0.000000
 11
-141.334510
 21
-149.700001
 31
0.000000
 0
LINE
 8
0
 6
CONTINUOUS
 62
7
 10
-141.237826
 20
-149.700001
 30
0.000000
 11
-141.286543
 21
-149.700001
 31
0.000000
 0
LINE
 8
0
 6
CONTINUOUS
 62
7
 10
-141.189835
 20
-149.700001
 30
0.000000
 11
-141.237826
 21
-149.700001
 31
0.000000
 0
LINE
 8
0
 6
CONTINUOUS
 62
7
 10
-141.144021
 20
-149.700001
 30
0.000000
 11
-141.189835
 21
-149.700001
 31
0.000000
 0
LINE
 8
0
 6
CONTINUOUS
 62
7
 10
-141.101772
 20
-149.700001
 30
0.000000
 11
-141.144021
 21
-149.700001
 31
0.000000
 0
LINE
 8
0
 6
CONTINUOUS
 62
7
 10
-141.064366
 20
-149.700001
 30
0.000000
 11
-141.101772
 21
-149.700001
 31
0.000000
 0
LINE
 8
0
 6
CONTINUOUS
 62
7
 10
-141.032937
 20
-149.700001
 30
0.000000
 11
-141.064366
 21
-149.700001
 31
0.000000
 0
LINE
 8
0
 6
CONTINUOUS
 62
7
 10
-141.423122
 20
-149.700001
 30
0.000000
 11
-141.423440
 21
-149.700001
 31
0.000000
 0
LINE
 8
0
 6
CONTINUOUS
 62
7
 10
-141.491405
 20
-149.700001
 30
0.000000
 11
-141.490935
 21
-149.700001
 31
0.000000
 0
LINE
 8
0
 6
CONTINUOUS
 62
7
 10
-141.515784
 20
-149.700001
 30
0.000000
 11
-141.491405
 21
-149.700001
 31
0.000000
 0
LINE
 8
0
 6
CONTINUOUS
 62
7
 10
-141.532483
 20
-149.700001
 30
0.000000
 11
-141.515784
 21
-149.700001
 31
0.000000
 0
LINE
 8
0
 6
CONTINUOUS
 62
7
 10
-141.540997
 20
-149.700001
 30
0.000000
 11
-141.532483
 21
-149.700001
 31
0.000000
 0
LINE
 8
0
 6
CONTINUOUS
 62
7
 10
-141.541069
 20
-149.700001
 30
0.000000
 11
-141.540997
 21
-149.700001
 31
0.000000
 0
LINE
 8
0
 6
CONTINUOUS
 62
7
 10
-141.532695
 20
-149.700001
 30
0.000000
 11
-141.541069
 21
-149.700001
 31
0.000000
 0
LINE
 8
0
 6
CONTINUOUS
 62
7
 10
-141.516129
 20
-149.700001
 30
0.000000
 11
-141.532695
 21
-149.700001
 31
0.000000
 0
LINE
 8
0
 6
CONTINUOUS
 62
7
 10
-141.491874
 20
-149.700001
 30
0.000000
 11
-141.516129
 21
-149.700001
 31
0.000000
 0
LINE
 8
0
 6
CONTINUOUS
 62
7
 10
-141.460662
 20
-149.700001
 30
0.000000
 11
-141.491874
 21
-149.700001
 31
0.000000
 0
LINE
 8
0
 6
CONTINUOUS
 62
7
 10
-141.423440
 20
-149.700001
 30
0.000000
 11
-141.460662
 21
-149.700001
 31
0.000000
 0
LINE
 8
0
 6
CONTINUOUS
 62
7
 10
-141.490935
 20
-149.700001
 30
0.000000
 11
-139.586557
 21
-149.700001
 31
0.000000
 0
LINE
 8
0
 6
CONTINUOUS
 62
7
 10
-139.128088
 20
-149.700001
 30
0.000000
 11
-139.128559
 21
-149.700001
 31
0.000000
 0
LINE
 8
0
 6
CONTINUOUS
 62
7
 10
-139.103709
 20
-149.700001
 30
0.000000
 11
-139.128088
 21
-149.700001
 31
0.000000
 0
LINE
 8
0
 6
CONTINUOUS
 62
7
 10
-139.087010
 20
-149.700001
 30
0.000000
 11
-139.103709
 21
-149.700001
 31
0.000000
 0
LINE
 8
0
 6
CONTINUOUS
 62
7
 10
-139.078496
 20
-149.700001
 30
0.000000
 11
-139.087010
 21
-149.700001
 31
0.000000
 0
LINE
 8
0
 6
CONTINUOUS
 62
7
 10
-139.078425
 20
-149.700001
 30
0.000000
 11
-139.078496
 21
-149.700001
 31
0.000000
 0
LINE
 8
0
 6
CONTINUOUS
 62
7
 10
-139.086799
 20
-149.700001
 30
0.000000
 11
-139.078425
 21
-149.700001
 31
0.000000
 0
LINE
 8
0
 6
CONTINUOUS
 62
7
 10
-139.103364
 20
-149.700001
 30
0.000000
 11
-139.086799
 21
-149.700001
 31
0.000000
 0
LINE
 8
0
 6
CONTINUOUS
 62
7
 10
-139.127620
 20
-149.700001
 30
0.000000
 11
-139.103364
 21
-149.700001
 31
0.000000
 0
LINE
 8
0
 6
CONTINUOUS
 62
7
 10
-139.158832
 20
-149.700001
 30
0.000000
 11
-139.127620
 21
-149.700001
 31
0.000000
 0
LINE
 8
0
 6
CONTINUOUS
 62
7
 10
-139.196054
 20
-149.700001
 30
0.000000
 11
-139.158832
 21
-149.700001
 31
0.000000
 0
LINE
 8
0
 6
CONTINUOUS
 62
7
 10
-139.128559
 20
-149.700001
 30
0.000000
 11
-141.032937
 21
-149.700001
 31
0.000000
 0
LINE
 8
0
 6
CONTINUOUS
 62
7
 10
-139.197041
 20
-149.700001
 30
0.000000
 11
-139.196371
 21
-149.700001
 31
0.000000
 0
LINE
 8
0
 6
CONTINUOUS
 62
7
 10
-139.239219
 20
-149.700001
 30
0.000000
 11
-139.197041
 21
-149.700001
 31
0.000000
 0
LINE
 8
0
 6
CONTINUOUS
 62
7
 10
-139.284984
 20
-149.700001
 30
0.000000
 11
-139.239219
 21
-149.700001
 31
0.000000
 0
LINE
 8
0
 6
CONTINUOUS
 62
7
 10
-139.332951
 20
-149.700001
 30
0.000000
 11
-139.284984
 21
-149.700001
 31
0.000000
 0
LINE
 8
0
 6
CONTINUOUS
 62
7
 10
-139.381667
 20
-149.700001
 30
0.000000
 11
-139.332951
 21
-149.700001
 31
0.000000
 0
LINE
 8
0
 6
CONTINUOUS
 62
7
 10
-139.429659
 20
-149.700001
 30
0.000000
 11
-139.381667
 21
-149.700001
 31
0.000000
 0
LINE
 8
0
 6
CONTINUOUS
 62
7
 10
-139.475473
 20
-149.700001
 30
0.000000
 11
-139.429659
 21
-149.700001
 31
0.000000
 0
LINE
 8
0
 6
CONTINUOUS
 62
7
 10
-139.517722
 20
-149.700001
 30
0.000000
 11
-139.475473
 21
-149.700001
 31
0.000000
 0
LINE
 8
0
 6
CONTINUOUS
 62
7
 10
-139.555127
 20
-149.700001
 30
0.000000
 11
-139.517722
 21
-149.700001
 31
0.000000
 0
LINE
 8
0
 6
CONTINUOUS
 62
7
 10
-139.586557
 20
-149.700001
 30
0.000000
 11
-139.555127
 21
-149.700001
 31
0.000000
 0
LINE
 8
0
 6
CONTINUOUS
 62
7
 10
-139.196371
 20
-149.700001
 30
0.000000
 11
-139.196054
 21
-149.700001
 31
0.000000
 0
LINE
 8
0
 6
CONTINUOUS
 62
7
 10
-149.055127
 20
-149.700001
 30
0.000000
 11
-149.086557
 21
-149.700001
 31
0.000000
 0
LINE
 8
0
 6
CONTINUOUS
 62
7
 10
-149.017722
 20
-149.700001
 30
0.000000
 11
-149.055127
 21
-149.700001
 31
0.000000
 0
LINE
 8
0
 6
CONTINUOUS
 62
7
 10
-148.975473
 20
-149.700001
 30
0.000000
 11
-149.017722
 21
-149.700001
 31
0.000000
 0
LINE
 8
0
 6
CONTINUOUS
 62
7
 10
-148.929659
 20
-149.700001
 30
0.000000
 11
-148.975473
 21
-149.700001
 31
0.000000
 0
LINE
 8
0
 6
CONTINUOUS
 62
7
 10
-148.881668
 20
-149.700001
 30
0.000000
 11
-148.929659
 21
-149.700001
 31
0.000000
 0
LINE
 8
0
 6
CONTINUOUS
 62
7
 10
-148.832951
 20
-149.700001
 30
0.000000
 11
-148.881668
 21
-149.700001
 31
0.000000
 0
LINE
 8
0
 6
CONTINUOUS
 62
7
 10
-148.784984
 20
-149.700001
 30
0.000000
 11
-148.832951
 21
-149.700001
 31
0.000000
 0
LINE
 8
0
 6
CONTINUOUS
 62
7
 10
-148.739219
 20
-149.700001
 30
0.000000
 11
-148.784984
 21
-149.700001
 31
0.000000
 0
LINE
 8
0
 6
CONTINUOUS
 62
7
 10
-148.697041
 20
-149.700001
 30
0.000000
 11
-148.739219
 21
-149.700001
 31
0.000000
 0
LINE
 8
0
 6
CONTINUOUS
 62
7
 10
-148.696372
 20
-149.700001
 30
0.000000
 11
-148.697041
 21
-149.700001
 31
0.000000
 0
LINE
 8
0
 6
CONTINUOUS
 62
7
 10
-148.696054
 20
-149.700001
 30
0.000000
 11
-148.696372
 21
-149.700001
 31
0.000000
 0
LINE
 8
0
 6
CONTINUOUS
 62
7
 10
-148.658832
 20
-149.700001
 30
0.000000
 11
-148.696054
 21
-149.700001
 31
0.000000
 0
LINE
 8
0
 6
CONTINUOUS
 62
7
 10
-148.627620
 20
-149.700001
 30
0.000000
 11
-148.658832
 21
-149.700001
 31
0.000000
 0
LINE
 8
0
 6
CONTINUOUS
 62
7
 10
-148.603365
 20
-149.700001
 30
0.000000
 11
-148.627620
 21
-149.700001
 31
0.000000
 0
LINE
 8
0
 6
CONTINUOUS
 62
7
 10
-148.586799
 20
-149.700001
 30
0.000000
 11
-148.603365
 21
-149.700001
 31
0.000000
 0
LINE
 8
0
 6
CONTINUOUS
 62
7
 10
-148.578425
 20
-149.700001
 30
0.000000
 11
-148.586799
 21
-149.700001
 31
0.000000
 0
LINE
 8
0
 6
CONTINUOUS
 62
7
 10
-148.578496
 20
-149.700001
 30
0.000000
 11
-148.578425
 21
-149.700001
 31
0.000000
 0
LINE
 8
0
 6
CONTINUOUS
 62
7
 10
-148.587010
 20
-149.700001
 30
0.000000
 11
-148.578496
 21
-149.700001
 31
0.000000
 0
LINE
 8
0
 6
CONTINUOUS
 62
7
 10
-148.603710
 20
-149.700001
 30
0.000000
 11
-148.587010
 21
-149.700001
 31
0.000000
 0
LINE
 8
0
 6
CONTINUOUS
 62
7
 10
-148.628089
 20
-149.700001
 30
0.000000
 11
-148.603710
 21
-149.700001
 31
0.000000
 0
LINE
 8
0
 6
CONTINUOUS
 62
7
 10
-148.628559
 20
-149.700001
 30
0.000000
 11
-148.628089
 21
-149.700001
 31
0.000000
 0
LINE
 8
0
 6
CONTINUOUS
 62
7
 10
-150.532937
 20
-149.700001
 30
0.000000
 11
-148.628559
 21
-149.700001
 31
0.000000
 0
LINE
 8
0
 6
CONTINUOUS
 62
7
 10
-150.960662
 20
-149.700001
 30
0.000000
 11
-150.923440
 21
-149.700001
 31
0.000000
 0
LINE
 8
0
 6
CONTINUOUS
 62
7
 10
-150.991874
 20
-149.700001
 30
0.000000
 11
-150.960662
 21
-149.700001
 31
0.000000
 0
LINE
 8
0
 6
CONTINUOUS
 62
7
 10
-151.016129
 20
-149.700001
 30
0.000000
 11
-150.991874
 21
-149.700001
 31
0.000000
 0
LINE
 8
0
 6
CONTINUOUS
 62
7
 10
-151.032695
 20
-149.700001
 30
0.000000
 11
-151.016129
 21
-149.700001
 31
0.000000
 0
LINE
 8
0
 6
CONTINUOUS
 62
7
 10
-151.041069
 20
-149.700001
 30
0.000000
 11
-151.032695
 21
-149.700001
 31
0.000000
 0
LINE
 8
0
 6
CONTINUOUS
 62
7
 10
-151.040998
 20
-149.700001
 30
0.000000
 11
-151.041069
 21
-149.700001
 31
0.000000
 0
LINE
 8
0
 6
CONTINUOUS
 62
7
 10
-151.032484
 20
-149.700001
 30
0.000000
 11
-151.040998
 21
-149.700001
 31
0.000000
 0
LINE
 8
0
 6
CONTINUOUS
 62
7
 10
-151.015784
 20
-149.700001
 30
0.000000
 11
-151.032484
 21
-149.700001
 31
0.000000
 0
LINE
 8
0
 6
CONTINUOUS
 62
7
 10
-150.991405
 20
-149.700001
 30
0.000000
 11
-151.015784
 21
-149.700001
 31
0.000000
 0
LINE
 8
0
 6
CONTINUOUS
 62
7
 10
-150.990935
 20
-149.700001
 30
0.000000
 11
-150.991405
 21
-149.700001
 31
0.000000
 0
LINE
 8
0
 6
CONTINUOUS
 62
7
 10
-149.086557
 20
-149.700001
 30
0.000000
 11
-150.990935
 21
-149.700001
 31
0.000000
 0
LINE
 8
0
 6
CONTINUOUS
 62
7
 10
-150.564367
 20
-149.700001
 30
0.000000
 11
-150.532937
 21
-149.700001
 31
0.000000
 0
LINE
 8
0
 6
CONTINUOUS
 62
7
 10
-150.601772
 20
-149.700001
 30
0.000000
 11
-150.564367
 21
-149.700001
 31
0.000000
 0
LINE
 8
0
 6
CONTINUOUS
 62
7
 10
-150.644021
 20
-149.700001
 30
0.000000
 11
-150.601772
 21
-149.700001
 31
0.000000
 0
LINE
 8
0
 6
CONTINUOUS
 62
7
 10
-150.689835
 20
-149.700001
 30
0.000000
 11
-150.644021
 21
-149.700001
 31
0.000000
 0
LINE
 8
0
 6
CONTINUOUS
 62
7
 10
-150.737826
 20
-149.700001
 30
0.000000
 11
-150.689835
 21
-149.700001
 31
0.000000
 0
LINE
 8
0
 6
CONTINUOUS
 62
7
 10
-150.786543
 20
-149.700001
 30
0.000000
 11
-150.737826
 21
-149.700001
 31
0.000000
 0
LINE
 8
0
 6
CONTINUOUS
 62
7
 10
-150.834510
 20
-149.700001
 30
0.000000
 11
-150.786543
 21
-149.700001
 31
0.000000
 0
LINE
 8
0
 6
CONTINUOUS
 62
7
 10
-150.880275
 20
-149.700001
 30
0.000000
 11
-150.834510
 21
-149.700001
 31
0.000000
 0
LINE
 8
0
 6
CONTINUOUS
 62
7
 10
-150.922453
 20
-149.700001
 30
0.000000
 11
-150.880275
 21
-149.700001
 31
0.000000
 0
LINE
 8
0
 6
CONTINUOUS
 62
7
 10
-150.923122
 20
-149.700001
 30
0.000000
 11
-150.922453
 21
-149.700001
 31
0.000000
 0
LINE
 8
0
 6
CONTINUOUS
 62
7
 10
-150.923440
 20
-149.700001
 30
0.000000
 11
-150.923122
 21
-149.700001
 31
0.000000
 0
LINE
 8
0
 6
CONTINUOUS
 62
7
 10
-138.559747
 20
-149.700001
 30
0.000000
 11
-141.759747
 21
-149.700001
 31
0.000000
 0
LINE
 8
0
 6
CONTINUOUS
 62
7
 10
-138.559747
 20
-150.000001
 30
0.000000
 11
-138.559747
 21
-149.700001
 31
0.000000
 0
LINE
 8
0
 6
CONTINUOUS
 62
7
 10
-148.359747
 20
-149.700001
 30
0.000000
 11
-151.559747
 21
-149.700001
 31
0.000000
 0
LINE
 8
0
 6
CONTINUOUS
 62
7
 10
-141.759747
 20
-149.700001
 30
0.000000
 11
-141.759747
 21
-109.133100
 31
0.000000
 0
LINE
 8
0
 6
CONTINUOUS
 62
7
 10
-141.759747
 20
-109.133100
 30
0.000000
 11
-148.359747
 21
-109.133100
 31
0.000000
 0
LINE
 8
0
 6
CONTINUOUS
 62
7
 10
-148.359747
 20
-109.133100
 30
0.000000
 11
-148.359747
 21
-149.700001
 31
0.000000
 0
LINE
 8
0
 6
CONTINUOUS
 62
7
 10
-151.559747
 20
-150.000001
 30
0.000000
 11
-151.559747
 21
-149.700001
 31
0.000000
 0
LINE
 8
0
 6
CONTINUOUS
 62
7
 10
-148.059747
 20
-150.000001
 30
0.000000
 11
-142.059747
 21
-150.000001
 31
0.000000
 0
LINE
 8
0
 6
CONTINUOUS
 62
7
 10
-138.559747
 20
-150.000001
 30
0.000000
 11
-151.559747
 21
-150.000001
 31
0.000000
 0
LINE
 8
0
 6
CONTINUOUS
 62
7
 10
-148.059729
 20
-150.000001
 30
0.000000
 11
-148.059747
 21
-150.000001
 31
0.000000
 0
LINE
 8
0
 6
CONTINUOUS
 62
7
 10
-141.759736
 20
-113.303100
 30
0.000000
 11
-141.759736
 21
-115.900050
 31
0.000000
 0
LINE
 8
0
 6
CONTINUOUS
 62
7
 10
-141.759736
 20
-116.700181
 30
0.000000
 11
-141.759736
 21
-120.800898
 31
0.000000
 0
LINE
 8
0
 6
CONTINUOUS
 62
7
 10
-141.759736
 20
-121.601026
 30
0.000000
 11
-141.759736
 21
-138.300001
 31
0.000000
 0
LINE
 8
0
 6
CONTINUOUS
 62
7
 10
-141.759729
 20
-109.133100
 30
0.000000
 11
-141.759729
 21
-115.900050
 31
0.000000
 0
LINE
 8
0
 6
CONTINUOUS
 62
7
 10
-141.759729
 20
-116.700182
 30
0.000000
 11
-141.759729
 21
-120.800898
 31
0.000000
 0
LINE
 8
0
 6
CONTINUOUS
 62
7
 10
-141.759729
 20
-121.601026
 30
0.000000
 11
-141.759729
 21
-149.700001
 31
0.000000
 0
LINE
 8
0
 6
CONTINUOUS
 62
7
 10
-148.059747
 20
-109.133100
 30
0.000000
 11
-148.059747
 21
-109.133100
 31
0.000000
 0
LINE
 8
0
 6
CONTINUOUS
 62
7
 10
-148.059747
 20
-109.133100
 30
0.000000
 11
-148.359729
 21
-109.133100
 31
0.000000
 0
LINE
 8
0
 6
CONTINUOUS
 62
7
 10
-141.759729
 20
-109.133100
 30
0.000000
 11
-141.759747
 21
-109.133100
 31
0.000000
 0
LINE
 8
0
 6
CONTINUOUS
 62
7
 10
-141.759747
 20
-109.133100
 30
0.000000
 11
-142.059729
 21
-109.133100
 31
0.000000
 0
LINE
 8
0
 6
CONTINUOUS
 62
7
 10
-141.759729
 20
-149.700001
 30
0.000000
 11
-141.541069
 21
-149.700001
 31
0.000000
 0
LINE
 8
0
 6
CONTINUOUS
 62
7
 10
-141.541069
 20
-149.700001
 30
0.000000
 11
-139.078425
 21
-149.700001
 31
0.000000
 0
LINE
 8
0
 6
CONTINUOUS
 62
7
 10
-139.078425
 20
-149.700001
 30
0.000000
 11
-138.559747
 21
-149.700001
 31
0.000000
 0
LINE
 8
0
 6
CONTINUOUS
 62
7
 10
-151.559747
 20
-149.700001
 30
0.000000
 11
-151.041069
 21
-149.700001
 31
0.000000
 0
LINE
 8
0
 6
CONTINUOUS
 62
7
 10
-151.041069
 20
-149.700001
 30
0.000000
 11
-148.578425
 21
-149.700001
 31
0.000000
 0
LINE
 8
0
 6
CONTINUOUS
 62
7
 10
-148.578425
 20
-149.700001
 30
0.000000
 11
-148.359747
 21
-149.700001
 31
0.000000
 0
LINE
 8
0
 6
CONTINUOUS
 62
7
 10
-140.944374
 20
-116.058996
 30
0.000000
 11
-140.944369
 21
-116.121754
 31
0.000000
 0
LINE
 8
0
 6
CONTINUOUS
 62
7
 10
-140.944379
 20
-116.004446
 30
0.000000
 11
-140.944374
 21
-116.058996
 31
0.000000
 0
LINE
 8
0
 6
CONTINUOUS
 62
7
 10
-140.944382
 20
-115.959963
 30
0.000000
 11
-140.944379
 21
-116.004446
 31
0.000000
 0
LINE
 8
0
 6
CONTINUOUS
 62
7
 10
-140.944369
 20
-116.121754
 30
0.000000
 11
-140.944364
 21
-116.190584
 31
0.000000
 0
LINE
 8
0
 6
CONTINUOUS
 62
7
 10
-140.944364
 20
-116.190584
 30
0.000000
 11
-140.944358
 21
-116.263142
 31
0.000000
 0
LINE
 8
0
 6
CONTINUOUS
 62
7
 10
-140.944358
 20
-116.263142
 30
0.000000
 11
-140.944352
 21
-116.336957
 31
0.000000
 0
LINE
 8
0
 6
CONTINUOUS
 62
7
 10
-140.944352
 20
-116.336957
 30
0.000000
 11
-140.944346
 21
-116.409515
 31
0.000000
 0
LINE
 8
0
 6
CONTINUOUS
 62
7
 10
-140.944346
 20
-116.409515
 30
0.000000
 11
-140.944341
 21
-116.478345
 31
0.000000
 0
LINE
 8
0
 6
CONTINUOUS
 62
7
 10
-140.944341
 20
-116.478345
 30
0.000000
 11
-140.944335
 21
-116.541103
 31
0.000000
 0
LINE
 8
0
 6
CONTINUOUS
 62
7
 10
-140.944335
 20
-116.541103
 30
0.000000
 11
-140.944331
 21
-116.595653
 31
0.000000
 0
LINE
 8
0
 6
CONTINUOUS
 62
7
 10
-140.944331
 20
-116.595653
 30
0.000000
 11
-140.944327
 21
-116.640136
 31
0.000000
 0
LINE
 8
0
 6
CONTINUOUS
 62
7
 10
-140.944327
 20
-116.640136
 30
0.000000
 11
-140.944325
 21
-116.673039
 31
0.000000
 0
LINE
 8
0
 6
CONTINUOUS
 62
7
 10
-140.944325
 20
-116.673039
 30
0.000000
 11
-140.944323
 21
-116.693239
 31
0.000000
 0
LINE
 8
0
 6
CONTINUOUS
 62
7
 10
-140.944323
 20
-116.693239
 30
0.000000
 11
-140.944323
 21
-116.700050
 31
0.000000
 0
LINE
 8
0
 6
CONTINUOUS
 62
7
 10
-140.944385
 20
-115.927061
 30
0.000000
 11
-140.944382
 21
-115.959963
 31
0.000000
 0
LINE
 8
0
 6
CONTINUOUS
 62
7
 10
-140.944387
 20
-115.906860
 30
0.000000
 11
-140.944385
 21
-115.927061
 31
0.000000
 0
LINE
 8
0
 6
CONTINUOUS
 62
7
 10
-140.944387
 20
-115.900050
 30
0.000000
 11
-140.944387
 21
-115.906860
 31
0.000000
 0
LINE
 8
0
 6
CONTINUOUS
 62
7
 10
-148.757246
 20
-116.300682
 30
0.000000
 11
-148.757231
 21
-116.393093
 31
0.000000
 0
LINE
 8
0
 6
CONTINUOUS
 62
7
 10
-148.757246
 20
-116.300682
 30
0.000000
 11
-148.757246
 21
-116.208270
 31
0.000000
 0
LINE
 8
0
 6
CONTINUOUS
 62
7
 10
-148.738873
 20
-116.664078
 30
0.000000
 11
-148.757231
 21
-116.393093
 31
0.000000
 0
LINE
 8
0
 6
CONTINUOUS
 62
7
 10
-148.514344
 20
-115.248070
 30
0.000000
 11
-148.368762
 21
-115.011650
 31
0.000000
 0
LINE
 8
0
 6
CONTINUOUS
 62
7
 10
-148.757246
 20
-116.208270
 30
0.000000
 11
-148.738932
 21
-115.937282
 31
0.000000
 0
LINE
 8
0
 6
CONTINUOUS
 62
7
 10
-148.657794
 20
-115.582610
 30
0.000000
 11
-148.738932
 21
-115.937282
 31
0.000000
 0
LINE
 8
0
 6
CONTINUOUS
 62
7
 10
-148.514344
 20
-115.248070
 30
0.000000
 11
-148.657794
 21
-115.582610
 31
0.000000
 0
LINE
 8
0
 6
CONTINUOUS
 62
7
 10
-148.368553
 20
-117.589650
 30
0.000000
 11
-148.514174
 21
-117.353254
 31
0.000000
 0
LINE
 8
0
 6
CONTINUOUS
 62
7
 10
-148.657678
 20
-117.018737
 30
0.000000
 11
-148.514174
 21
-117.353254
 31
0.000000
 0
LINE
 8
0
 6
CONTINUOUS
 62
7
 10
-148.657678
 20
-117.018737
 30
0.000000
 11
-148.738873
 21
-116.664078
 31
0.000000
 0
LINE
 8
0
 6
CONTINUOUS
 62
7
 10
-148.368554
 20
-117.584152
 30
0.000000
 11
-148.368553
 21
-117.589650
 31
0.000000
 0
LINE
 8
0
 6
CONTINUOUS
 62
7
 10
-148.368557
 20
-117.540444
 30
0.000000
 11
-148.368555
 21
-117.567703
 31
0.000000
 0
LINE
 8
0
 6
CONTINUOUS
 62
7
 10
-148.368555
 20
-117.567703
 30
0.000000
 11
-148.368554
 21
-117.584152
 31
0.000000
 0
LINE
 8
0
 6
CONTINUOUS
 62
7
 10
-148.368560
 20
-117.502607
 30
0.000000
 11
-148.368557
 21
-117.540444
 31
0.000000
 0
LINE
 8
0
 6
CONTINUOUS
 62
7
 10
-148.368564
 20
-117.454516
 30
0.000000
 11
-148.368560
 21
-117.502607
 31
0.000000
 0
LINE
 8
0
 6
CONTINUOUS
 62
7
 10
-148.368574
 20
-117.329295
 30
0.000000
 11
-148.368569
 21
-117.396580
 31
0.000000
 0
LINE
 8
0
 6
CONTINUOUS
 62
7
 10
-148.368569
 20
-117.396580
 30
0.000000
 11
-148.368564
 21
-117.454516
 31
0.000000
 0
LINE
 8
0
 6
CONTINUOUS
 62
7
 10
-148.368581
 20
-117.253233
 30
0.000000
 11
-148.368574
 21
-117.329295
 31
0.000000
 0
LINE
 8
0
 6
CONTINUOUS
 62
7
 10
-148.368587
 20
-117.169044
 30
0.000000
 11
-148.368581
 21
-117.253233
 31
0.000000
 0
LINE
 8
0
 6
CONTINUOUS
 62
7
 10
-148.368603
 20
-116.979221
 30
0.000000
 11
-148.368595
 21
-117.077446
 31
0.000000
 0
LINE
 8
0
 6
CONTINUOUS
 62
7
 10
-148.368595
 20
-117.077446
 30
0.000000
 11
-148.368587
 21
-117.169044
 31
0.000000
 0
LINE
 8
0
 6
CONTINUOUS
 62
7
 10
-148.368611
 20
-116.875207
 30
0.000000
 11
-148.368603
 21
-116.979221
 31
0.000000
 0
LINE
 8
0
 6
CONTINUOUS
 62
7
 10
-148.368620
 20
-116.766291
 30
0.000000
 11
-148.368611
 21
-116.875207
 31
0.000000
 0
LINE
 8
0
 6
CONTINUOUS
 62
7
 10
-148.368639
 20
-116.537503
 30
0.000000
 11
-148.368629
 21
-116.653402
 31
0.000000
 0
LINE
 8
0
 6
CONTINUOUS
 62
7
 10
-148.368629
 20
-116.653402
 30
0.000000
 11
-148.368620
 21
-116.766291
 31
0.000000
 0
LINE
 8
0
 6
CONTINUOUS
 62
7
 10
-148.368648
 20
-116.419584
 30
0.000000
 11
-148.368639
 21
-116.537503
 31
0.000000
 0
LINE
 8
0
 6
CONTINUOUS
 62
7
 10
-148.368658
 20
-116.300650
 30
0.000000
 11
-148.368648
 21
-116.419584
 31
0.000000
 0
LINE
 8
0
 6
CONTINUOUS
 62
7
 10
-148.368677
 20
-116.063797
 30
0.000000
 11
-148.368667
 21
-116.181716
 31
0.000000
 0
LINE
 8
0
 6
CONTINUOUS
 62
7
 10
-148.368667
 20
-116.181716
 30
0.000000
 11
-148.368658
 21
-116.300650
 31
0.000000
 0
LINE
 8
0
 6
CONTINUOUS
 62
7
 10
-148.368686
 20
-115.947899
 30
0.000000
 11
-148.368677
 21
-116.063797
 31
0.000000
 0
LINE
 8
0
 6
CONTINUOUS
 62
7
 10
-148.368695
 20
-115.835010
 30
0.000000
 11
-148.368686
 21
-115.947899
 31
0.000000
 0
LINE
 8
0
 6
CONTINUOUS
 62
7
 10
-148.368713
 20
-115.622079
 30
0.000000
 11
-148.368704
 21
-115.726093
 31
0.000000
 0
LINE
 8
0
 6
CONTINUOUS
 62
7
 10
-148.368704
 20
-115.726093
 30
0.000000
 11
-148.368695
 21
-115.835010
 31
0.000000
 0
LINE
 8
0
 6
CONTINUOUS
 62
7
 10
-148.368721
 20
-115.523854
 30
0.000000
 11
-148.368713
 21
-115.622079
 31
0.000000
 0
LINE
 8
0
 6
CONTINUOUS
 62
7
 10
-148.368728
 20
-115.432257
 30
0.000000
 11
-148.368721
 21
-115.523854
 31
0.000000
 0
LINE
 8
0
 6
CONTINUOUS
 62
7
 10
-148.368741
 20
-115.272006
 30
0.000000
 11
-148.368735
 21
-115.348068
 31
0.000000
 0
LINE
 8
0
 6
CONTINUOUS
 62
7
 10
-148.368735
 20
-115.348068
 30
0.000000
 11
-148.368728
 21
-115.432257
 31
0.000000
 0
LINE
 8
0
 6
CONTINUOUS
 62
7
 10
-148.368746
 20
-115.204720
 30
0.000000
 11
-148.368741
 21
-115.272006
 31
0.000000
 0
LINE
 8
0
 6
CONTINUOUS
 62
7
 10
-148.368751
 20
-115.146785
 30
0.000000
 11
-148.368746
 21
-115.204720
 31
0.000000
 0
LINE
 8
0
 6
CONTINUOUS
 62
7
 10
-148.368758
 20
-115.060857
 30
0.000000
 11
-148.368755
 21
-115.098693
 31
0.000000
 0
LINE
 8
0
 6
CONTINUOUS
 62
7
 10
-148.368755
 20
-115.098693
 30
0.000000
 11
-148.368751
 21
-115.146785
 31
0.000000
 0
LINE
 8
0
 6
CONTINUOUS
 62
7
 10
-148.368760
 20
-115.033598
 30
0.000000
 11
-148.368758
 21
-115.060857
 31
0.000000
 0
LINE
 8
0
 6
CONTINUOUS
 62
7
 10
-148.368762
 20
-115.017149
 30
0.000000
 11
-148.368760
 21
-115.033598
 31
0.000000
 0
LINE
 8
0
 6
CONTINUOUS
 62
7
 10
-148.368762
 20
-115.011650
 30
0.000000
 11
-148.368762
 21
-115.017149
 31
0.000000
 0
LINE
 8
0
 6
CONTINUOUS
 62
7
 10
-141.037204
 20
-115.659191
 30
0.000000
 11
-141.687204
 21
-115.659191
 31
0.000000
 0
LINE
 8
0
 6
CONTINUOUS
 62
7
 10
-141.037204
 20
-116.300050
 30
0.000000
 11
-141.687204
 21
-116.300050
 31
0.000000
 0
LINE
 8
0
 6
CONTINUOUS
 62
7
 10
-141.037204
 20
-116.940908
 30
0.000000
 11
-141.687204
 21
-116.940908
 31
0.000000
 0
LINE
 8
0
 6
CONTINUOUS
 62
7
 10
-141.687204
 20
-115.959972
 30
0.000000
 11
-141.687204
 21
-116.004462
 31
0.000000
 0
LINE
 8
0
 6
CONTINUOUS
 62
7
 10
-141.687204
 20
-116.059020
 30
0.000000
 11
-141.687204
 21
-116.121788
 31
0.000000
 0
LINE
 8
0
 6
CONTINUOUS
 62
7
 10
-141.687204
 20
-116.300050
 30
0.000000
 11
-141.687204
 21
-115.659191
 31
0.000000
 0
LINE
 8
0
 6
CONTINUOUS
 62
7
 10
-141.687204
 20
-116.121788
 30
0.000000
 11
-141.687204
 21
-116.190628
 31
0.000000
 0
LINE
 8
0
 6
CONTINUOUS
 62
7
 10
-141.687204
 20
-116.190628
 30
0.000000
 11
-141.687204
 21
-116.263197
 31
0.000000
 0
LINE
 8
0
 6
CONTINUOUS
 62
7
 10
-141.687204
 20
-116.940908
 30
0.000000
 11
-141.687204
 21
-116.300050
 31
0.000000
 0
LINE
 8
0
 6
CONTINUOUS
 62
7
 10
-141.037204
 20
-116.700065
 30
0.000000
 11
-141.037204
 21
-116.693254
 31
0.000000
 0
LINE
 8
0
 6
CONTINUOUS
 62
7
 10
-141.037204
 20
-116.693254
 30
0.000000
 11
-141.037204
 21
-116.673053
 31
0.000000
 0
LINE
 8
0
 6
CONTINUOUS
 62
7
 10
-141.037204
 20
-116.673053
 30
0.000000
 11
-141.037204
 21
-116.640150
 31
0.000000
 0
LINE
 8
0
 6
CONTINUOUS
 62
7
 10
-141.037204
 20
-116.640150
 30
0.000000
 11
-141.037204
 21
-116.595666
 31
0.000000
 0
LINE
 8
0
 6
CONTINUOUS
 62
7
 10
-141.037204
 20
-116.595666
 30
0.000000
 11
-141.037204
 21
-116.541116
 31
0.000000
 0
LINE
 8
0
 6
CONTINUOUS
 62
7
 10
-141.037204
 20
-116.541116
 30
0.000000
 11
-141.037204
 21
-116.478356
 31
0.000000
 0
LINE
 8
0
 6
CONTINUOUS
 62
7
 10
-141.037204
 20
-116.478356
 30
0.000000
 11
-141.037204
 21
-116.409524
 31
0.000000
 0
LINE
 8
0
 6
CONTINUOUS
 62
7
 10
-141.037204
 20
-116.409524
 30
0.000000
 11
-141.037204
 21
-116.336965
 31
0.000000
 0
LINE
 8
0
 6
CONTINUOUS
 62
7
 10
-141.037204
 20
-116.263149
 30
0.000000
 11
-141.037204
 21
-116.190590
 31
0.000000
 0
LINE
 8
0
 6
CONTINUOUS
 62
7
 10
-141.037204
 20
-116.190590
 30
0.000000
 11
-141.037204
 21
-116.121758
 31
0.000000
 0
LINE
 8
0
 6
CONTINUOUS
 62
7
 10
-141.037204
 20
-115.659191
 30
0.000000
 11
-141.037204
 21
-116.300050
 31
0.000000
 0
LINE
 8
0
 6
CONTINUOUS
 62
7
 10
-141.037204
 20
-116.121758
 30
0.000000
 11
-141.037204
 21
-116.058999
 31
0.000000
 0
LINE
 8
0
 6
CONTINUOUS
 62
7
 10
-141.037204
 20
-116.058999
 30
0.000000
 11
-141.037204
 21
-116.004448
 31
0.000000
 0
LINE
 8
0
 6
CONTINUOUS
 62
7
 10
-141.037204
 20
-116.004448
 30
0.000000
 11
-141.037204
 21
-115.959964
 31
0.000000
 0
LINE
 8
0
 6
CONTINUOUS
 62
7
 10
-141.037204
 20
-115.959964
 30
0.000000
 11
-141.037204
 21
-115.927061
 31
0.000000
 0
LINE
 8
0
 6
CONTINUOUS
 62
7
 10
-141.037204
 20
-115.927061
 30
0.000000
 11
-141.037204
 21
-115.906860
 31
0.000000
 0
LINE
 8
0
 6
CONTINUOUS
 62
7
 10
-141.037204
 20
-115.906860
 30
0.000000
 11
-141.037204
 21
-115.900050
 31
0.000000
 0
LINE
 8
0
 6
CONTINUOUS
 62
7
 10
-141.037204
 20
-116.300050
 30
0.000000
 11
-141.037204
 21
-116.940908
 31
0.000000
 0
LINE
 8
0
 6
CONTINUOUS
 62
7
 10
-141.687204
 20
-115.900050
 30
0.000000
 11
-141.759740
 21
-115.900050
 31
0.000000
 0
LINE
 8
0
 6
CONTINUOUS
 62
7
 10
-141.687204
 20
-116.700170
 30
0.000000
 11
-141.759740
 21
-116.700182
 31
0.000000
 0
LINE
 8
0
 6
CONTINUOUS
 62
7
 10
-140.944323
 20
-116.700050
 30
0.000000
 11
-141.037204
 21
-116.700065
 31
0.000000
 0
LINE
 8
0
 6
CONTINUOUS
 62
7
 10
-140.944387
 20
-115.900050
 30
0.000000
 11
-141.037204
 21
-115.900050
 31
0.000000
 0
LINE
 8
0
 6
CONTINUOUS
 62
7
 10
-148.368553
 20
-117.589650
 30
0.000000
 11
-148.359747
 21
-117.589662
 31
0.000000
 0
LINE
 8
0
 6
CONTINUOUS
 62
7
 10
-148.359747
 20
-115.011637
 30
0.000000
 11
-148.368762
 21
-115.011650
 31
0.000000
 0
LINE
 8
0
 6
CONTINUOUS
 62
7
 10
-141.037204
 20
-116.336965
 30
0.000000
 11
-141.037204
 21
-116.300050
 31
0.000000
 0
LINE
 8
0
 6
CONTINUOUS
 62
7
 10
-141.037204
 20
-116.300050
 30
0.000000
 11
-141.037204
 21
-116.263149
 31
0.000000
 0
LINE
 8
0
 6
CONTINUOUS
 62
7
 10
-145.109747
 20
-150.000001
 30
0.000000
 11
-145.059747
 21
-150.000001
 31
0.000000
 0
LINE
 8
0
 6
CONTINUOUS
 62
7
 10
-151.859747
 20
-85.300000
 30
0.000000
 11
-138.259747
 21
-85.300000
 31
0.000000
 0
LINE
 8
0
 6
CONTINUOUS
 62
7
 10
-138.559747
 20
-85.000000
 30
0.000000
 11
-151.559747
 21
-85.000000
 31
0.000000
 0
LINE
 8
0
 6
CONTINUOUS
 62
7
 10
-151.859747
 20
-85.000000
 30
0.000000
 11
-138.259747
 21
-85.000000
 31
0.000000
 0
LINE
 8
0
 6
CONTINUOUS
 62
7
 10
-138.259747
 20
-85.000000
 30
0.000000
 11
-138.259747
 21
-85.300000
 31
0.000000
 0
LINE
 8
0
 6
CONTINUOUS
 62
7
 10
-138.259747
 20
-85.300000
 30
0.000000
 11
-138.259747
 21
-86.832644
 31
0.000000
 0
LINE
 8
0
 6
CONTINUOUS
 62
7
 10
-151.859747
 20
-85.300000
 30
0.000000
 11
-151.859747
 21
-85.000000
 31
0.000000
 0
LINE
 8
0
 6
CONTINUOUS
 62
7
 10
-151.859747
 20
-86.832644
 30
0.000000
 11
-151.859747
 21
-85.300000
 31
0.000000
 0
LINE
 8
0
 6
CONTINUOUS
 62
7
 10
-151.859747
 20
-86.832644
 30
0.000000
 11
-148.059747
 21
-86.832644
 31
0.000000
 0
LINE
 8
0
 6
CONTINUOUS
 62
7
 10
-147.759810
 20
-86.832644
 30
0.000000
 11
-147.759747
 21
-86.832644
 31
0.000000
 0
LINE
 8
0
 6
CONTINUOUS
 62
7
 10
-142.359747
 20
-86.832644
 30
0.000000
 11
-142.359683
 21
-86.832644
 31
0.000000
 0
LINE
 8
0
 6
CONTINUOUS
 62
7
 10
-142.059747
 20
-86.832644
 30
0.000000
 11
-138.259747
 21
-86.832644
 31
0.000000
 0
LINE
 8
0
 6
CONTINUOUS
 62
7
 10
-140.972353
 20
-120.959844
 30
0.000000
 11
-140.972348
 21
-121.022603
 31
0.000000
 0
LINE
 8
0
 6
CONTINUOUS
 62
7
 10
-140.972357
 20
-120.905295
 30
0.000000
 11
-140.972353
 21
-120.959844
 31
0.000000
 0
LINE
 8
0
 6
CONTINUOUS
 62
7
 10
-140.972361
 20
-120.860811
 30
0.000000
 11
-140.972357
 21
-120.905295
 31
0.000000
 0
LINE
 8
0
 6
CONTINUOUS
 62
7
 10
-140.972348
 20
-121.022603
 30
0.000000
 11
-140.972342
 21
-121.091433
 31
0.000000
 0
LINE
 8
0
 6
CONTINUOUS
 62
7
 10
-140.972342
 20
-121.091433
 30
0.000000
 11
-140.972336
 21
-121.163991
 31
0.000000
 0
LINE
 8
0
 6
CONTINUOUS
 62
7
 10
-140.972336
 20
-121.163991
 30
0.000000
 11
-140.972330
 21
-121.237806
 31
0.000000
 0
LINE
 8
0
 6
CONTINUOUS
 62
7
 10
-140.972330
 20
-121.237806
 30
0.000000
 11
-140.972324
 21
-121.310364
 31
0.000000
 0
LINE
 8
0
 6
CONTINUOUS
 62
7
 10
-140.972324
 20
-121.310364
 30
0.000000
 11
-140.972319
 21
-121.379194
 31
0.000000
 0
LINE
 8
0
 6
CONTINUOUS
 62
7
 10
-140.972319
 20
-121.379194
 30
0.000000
 11
-140.972314
 21
-121.441952
 31
0.000000
 0
LINE
 8
0
 6
CONTINUOUS
 62
7
 10
-140.972314
 20
-121.441952
 30
0.000000
 11
-140.972309
 21
-121.496502
 31
0.000000
 0
LINE
 8
0
 6
CONTINUOUS
 62
7
 10
-140.972309
 20
-121.496502
 30
0.000000
 11
-140.972306
 21
-121.540985
 31
0.000000
 0
LINE
 8
0
 6
CONTINUOUS
 62
7
 10
-140.972306
 20
-121.540985
 30
0.000000
 11
-140.972303
 21
-121.573887
 31
0.000000
 0
LINE
 8
0
 6
CONTINUOUS
 62
7
 10
-140.972303
 20
-121.573887
 30
0.000000
 11
-140.972301
 21
-121.594088
 31
0.000000
 0
LINE
 8
0
 6
CONTINUOUS
 62
7
 10
-140.972301
 20
-121.594088
 30
0.000000
 11
-140.972301
 21
-121.600898
 31
0.000000
 0
LINE
 8
0
 6
CONTINUOUS
 62
7
 10
-140.972363
 20
-120.827909
 30
0.000000
 11
-140.972361
 21
-120.860811
 31
0.000000
 0
LINE
 8
0
 6
CONTINUOUS
 62
7
 10
-140.972365
 20
-120.807709
 30
0.000000
 11
-140.972363
 21
-120.827909
 31
0.000000
 0
LINE
 8
0
 6
CONTINUOUS
 62
7
 10
-140.972365
 20
-120.800898
 30
0.000000
 11
-140.972365
 21
-120.807709
 31
0.000000
 0
LINE
 8
0
 6
CONTINUOUS
 62
7
 10
-148.785224
 20
-121.201530
 30
0.000000
 11
-148.785209
 21
-121.293942
 31
0.000000
 0
LINE
 8
0
 6
CONTINUOUS
 62
7
 10
-148.785224
 20
-121.201530
 30
0.000000
 11
-148.785224
 21
-121.109119
 31
0.000000
 0
LINE
 8
0
 6
CONTINUOUS
 62
7
 10
-148.766851
 20
-121.564927
 30
0.000000
 11
-148.785209
 21
-121.293942
 31
0.000000
 0
LINE
 8
0
 6
CONTINUOUS
 62
7
 10
-148.542322
 20
-120.148919
 30
0.000000
 11
-148.396740
 21
-119.912499
 31
0.000000
 0
LINE
 8
0
 6
CONTINUOUS
 62
7
 10
-148.785224
 20
-121.109119
 30
0.000000
 11
-148.766910
 21
-120.838131
 31
0.000000
 0
LINE
 8
0
 6
CONTINUOUS
 62
7
 10
-148.685772
 20
-120.483459
 30
0.000000
 11
-148.766910
 21
-120.838131
 31
0.000000
 0
LINE
 8
0
 6
CONTINUOUS
 62
7
 10
-148.542322
 20
-120.148919
 30
0.000000
 11
-148.685772
 21
-120.483459
 31
0.000000
 0
LINE
 8
0
 6
CONTINUOUS
 62
7
 10
-148.396532
 20
-122.490499
 30
0.000000
 11
-148.542152
 21
-122.254103
 31
0.000000
 0
LINE
 8
0
 6
CONTINUOUS
 62
7
 10
-148.685656
 20
-121.919586
 30
0.000000
 11
-148.542152
 21
-122.254103
 31
0.000000
 0
LINE
 8
0
 6
CONTINUOUS
 62
7
 10
-148.685656
 20
-121.919586
 30
0.000000
 11
-148.766851
 21
-121.564927
 31
0.000000
 0
LINE
 8
0
 6
CONTINUOUS
 62
7
 10
-148.396532
 20
-122.485000
 30
0.000000
 11
-148.396532
 21
-122.490499
 31
0.000000
 0
LINE
 8
0
 6
CONTINUOUS
 62
7
 10
-148.396535
 20
-122.441292
 30
0.000000
 11
-148.396533
 21
-122.468551
 31
0.000000
 0
LINE
 8
0
 6
CONTINUOUS
 62
7
 10
-148.396533
 20
-122.468551
 30
0.000000
 11
-148.396532
 21
-122.485000
 31
0.000000
 0
LINE
 8
0
 6
CONTINUOUS
 62
7
 10
-148.396539
 20
-122.403456
 30
0.000000
 11
-148.396535
 21
-122.441292
 31
0.000000
 0
LINE
 8
0
 6
CONTINUOUS
 62
7
 10
-148.396542
 20
-122.355365
 30
0.000000
 11
-148.396539
 21
-122.403456
 31
0.000000
 0
LINE
 8
0
 6
CONTINUOUS
 62
7
 10
-148.396553
 20
-122.230143
 30
0.000000
 11
-148.396547
 21
-122.297429
 31
0.000000
 0
LINE
 8
0
 6
CONTINUOUS
 62
7
 10
-148.396547
 20
-122.297429
 30
0.000000
 11
-148.396542
 21
-122.355365
 31
0.000000
 0
LINE
 8
0
 6
CONTINUOUS
 62
7
 10
-148.396559
 20
-122.154082
 30
0.000000
 11
-148.396553
 21
-122.230143
 31
0.000000
 0
LINE
 8
0
 6
CONTINUOUS
 62
7
 10
-148.396566
 20
-122.069893
 30
0.000000
 11
-148.396559
 21
-122.154082
 31
0.000000
 0
LINE
 8
0
 6
CONTINUOUS
 62
7
 10
-148.396581
 20
-121.880070
 30
0.000000
 11
-148.396573
 21
-121.978295
 31
0.000000
 0
LINE
 8
0
 6
CONTINUOUS
 62
7
 10
-148.396573
 20
-121.978295
 30
0.000000
 11
-148.396566
 21
-122.069893
 31
0.000000
 0
LINE
 8
0
 6
CONTINUOUS
 62
7
 10
-148.396589
 20
-121.776056
 30
0.000000
 11
-148.396581
 21
-121.880070
 31
0.000000
 0
LINE
 8
0
 6
CONTINUOUS
 62
7
 10
-148.396598
 20
-121.667140
 30
0.000000
 11
-148.396589
 21
-121.776056
 31
0.000000
 0
LINE
 8
0
 6
CONTINUOUS
 62
7
 10
-148.396617
 20
-121.438352
 30
0.000000
 11
-148.396607
 21
-121.554251
 31
0.000000
 0
LINE
 8
0
 6
CONTINUOUS
 62
7
 10
-148.396607
 20
-121.554251
 30
0.000000
 11
-148.396598
 21
-121.667140
 31
0.000000
 0
LINE
 8
0
 6
CONTINUOUS
 62
7
 10
-148.396626
 20
-121.320433
 30
0.000000
 11
-148.396617
 21
-121.438352
 31
0.000000
 0
LINE
 8
0
 6
CONTINUOUS
 62
7
 10
-148.396636
 20
-121.201499
 30
0.000000
 11
-148.396626
 21
-121.320433
 31
0.000000
 0
LINE
 8
0
 6
CONTINUOUS
 62
7
 10
-148.396655
 20
-120.964646
 30
0.000000
 11
-148.396645
 21
-121.082565
 31
0.000000
 0
LINE
 8
0
 6
CONTINUOUS
 62
7
 10
-148.396645
 20
-121.082565
 30
0.000000
 11
-148.396636
 21
-121.201499
 31
0.000000
 0
LINE
 8
0
 6
CONTINUOUS
 62
7
 10
-148.396664
 20
-120.848747
 30
0.000000
 11
-148.396655
 21
-120.964646
 31
0.000000
 0
LINE
 8
0
 6
CONTINUOUS
 62
7
 10
-148.396673
 20
-120.735858
 30
0.000000
 11
-148.396664
 21
-120.848747
 31
0.000000
 0
LINE
 8
0
 6
CONTINUOUS
 62
7
 10
-148.396691
 20
-120.522928
 30
0.000000
 11
-148.396682
 21
-120.626942
 31
0.000000
 0
LINE
 8
0
 6
CONTINUOUS
 62
7
 10
-148.396682
 20
-120.626942
 30
0.000000
 11
-148.396673
 21
-120.735858
 31
0.000000
 0
LINE
 8
0
 6
CONTINUOUS
 62
7
 10
-148.396699
 20
-120.424703
 30
0.000000
 11
-148.396691
 21
-120.522928
 31
0.000000
 0
LINE
 8
0
 6
CONTINUOUS
 62
7
 10
-148.396706
 20
-120.333105
 30
0.000000
 11
-148.396699
 21
-120.424703
 31
0.000000
 0
LINE
 8
0
 6
CONTINUOUS
 62
7
 10
-148.396719
 20
-120.172855
 30
0.000000
 11
-148.396713
 21
-120.248916
 31
0.000000
 0
LINE
 8
0
 6
CONTINUOUS
 62
7
 10
-148.396713
 20
-120.248916
 30
0.000000
 11
-148.396706
 21
-120.333105
 31
0.000000
 0
LINE
 8
0
 6
CONTINUOUS
 62
7
 10
-148.396724
 20
-120.105569
 30
0.000000
 11
-148.396719
 21
-120.172855
 31
0.000000
 0
LINE
 8
0
 6
CONTINUOUS
 62
7
 10
-148.396729
 20
-120.047633
 30
0.000000
 11
-148.396724
 21
-120.105569
 31
0.000000
 0
LINE
 8
0
 6
CONTINUOUS
 62
7
 10
-148.396736
 20
-119.961706
 30
0.000000
 11
-148.396733
 21
-119.999542
 31
0.000000
 0
LINE
 8
0
 6
CONTINUOUS
 62
7
 10
-148.396733
 20
-119.999542
 30
0.000000
 11
-148.396729
 21
-120.047633
 31
0.000000
 0
LINE
 8
0
 6
CONTINUOUS
 62
7
 10
-148.396738
 20
-119.934447
 30
0.000000
 11
-148.396736
 21
-119.961706
 31
0.000000
 0
LINE
 8
0
 6
CONTINUOUS
 62
7
 10
-148.396740
 20
-119.917998
 30
0.000000
 11
-148.396738
 21
-119.934447
 31
0.000000
 0
LINE
 8
0
 6
CONTINUOUS
 62
7
 10
-148.396740
 20
-119.912499
 30
0.000000
 11
-148.396740
 21
-119.917998
 31
0.000000
 0
LINE
 8
0
 6
CONTINUOUS
 62
7
 10
-141.065182
 20
-120.560040
 30
0.000000
 11
-141.715182
 21
-120.560040
 31
0.000000
 0
LINE
 8
0
 6
CONTINUOUS
 62
7
 10
-141.065182
 20
-121.200898
 30
0.000000
 11
-141.715182
 21
-121.200898
 31
0.000000
 0
LINE
 8
0
 6
CONTINUOUS
 62
7
 10
-141.065182
 20
-121.841757
 30
0.000000
 11
-141.715182
 21
-121.841757
 31
0.000000
 0
LINE
 8
0
 6
CONTINUOUS
 62
7
 10
-141.715182
 20
-120.800898
 30
0.000000
 11
-141.715182
 21
-120.807710
 31
0.000000
 0
LINE
 8
0
 6
CONTINUOUS
 62
7
 10
-141.715182
 20
-120.807710
 30
0.000000
 11
-141.715182
 21
-120.827913
 31
0.000000
 0
LINE
 8
0
 6
CONTINUOUS
 62
7
 10
-141.715182
 20
-120.827913
 30
0.000000
 11
-141.715182
 21
-120.860820
 31
0.000000
 0
LINE
 8
0
 6
CONTINUOUS
 62
7
 10
-141.715182
 20
-120.860820
 30
0.000000
 11
-141.715182
 21
-120.905310
 31
0.000000
 0
LINE
 8
0
 6
CONTINUOUS
 62
7
 10
-141.715182
 20
-120.905310
 30
0.000000
 11
-141.715182
 21
-120.959868
 31
0.000000
 0
LINE
 8
0
 6
CONTINUOUS
 62
7
 10
-141.715182
 20
-120.959868
 30
0.000000
 11
-141.715182
 21
-121.022636
 31
0.000000
 0
LINE
 8
0
 6
CONTINUOUS
 62
7
 10
-141.715182
 20
-121.200898
 30
0.000000
 11
-141.715182
 21
-120.560040
 31
0.000000
 0
LINE
 8
0
 6
CONTINUOUS
 62
7
 10
-141.715182
 20
-121.022636
 30
0.000000
 11
-141.715182
 21
-121.091477
 31
0.000000
 0
LINE
 8
0
 6
CONTINUOUS
 62
7
 10
-141.715182
 20
-121.091477
 30
0.000000
 11
-141.715182
 21
-121.164046
 31
0.000000
 0
LINE
 8
0
 6
CONTINUOUS
 62
7
 10
-141.715182
 20
-121.237871
 30
0.000000
 11
-141.715182
 21
-121.310440
 31
0.000000
 0
LINE
 8
0
 6
CONTINUOUS
 62
7
 10
-141.715182
 20
-121.310440
 30
0.000000
 11
-141.715182
 21
-121.379281
 31
0.000000
 0
LINE
 8
0
 6
CONTINUOUS
 62
7
 10
-141.715182
 20
-121.379281
 30
0.000000
 11
-141.715182
 21
-121.442049
 31
0.000000
 0
LINE
 8
0
 6
CONTINUOUS
 62
7
 10
-141.715182
 20
-121.442049
 30
0.000000
 11
-141.715182
 21
-121.496606
 31
0.000000
 0
LINE
 8
0
 6
CONTINUOUS
 62
7
 10
-141.715182
 20
-121.496606
 30
0.000000
 11
-141.715182
 21
-121.541096
 31
0.000000
 0
LINE
 8
0
 6
CONTINUOUS
 62
7
 10
-141.715182
 20
-121.541096
 30
0.000000
 11
-141.715182
 21
-121.574003
 31
0.000000
 0
LINE
 8
0
 6
CONTINUOUS
 62
7
 10
-141.715182
 20
-121.574003
 30
0.000000
 11
-141.715182
 21
-121.594207
 31
0.000000
 0
LINE
 8
0
 6
CONTINUOUS
 62
7
 10
-141.715182
 20
-121.594207
 30
0.000000
 11
-141.715182
 21
-121.601019
 31
0.000000
 0
LINE
 8
0
 6
CONTINUOUS
 62
7
 10
-141.715182
 20
-121.841757
 30
0.000000
 11
-141.715182
 21
-121.200898
 31
0.000000
 0
LINE
 8
0
 6
CONTINUOUS
 62
7
 10
-141.065182
 20
-120.560040
 30
0.000000
 11
-141.065182
 21
-121.200898
 31
0.000000
 0
LINE
 8
0
 6
CONTINUOUS
 62
7
 10
-141.065182
 20
-120.807709
 30
0.000000
 11
-141.065182
 21
-120.800898
 31
0.000000
 0
LINE
 8
0
 6
CONTINUOUS
 62
7
 10
-141.065182
 20
-121.200898
 30
0.000000
 11
-141.065182
 21
-121.841757
 31
0.000000
 0
LINE
 8
0
 6
CONTINUOUS
 62
7
 10
-141.715182
 20
-120.800898
 30
0.000000
 11
-141.759740
 21
-120.800898
 31
0.000000
 0
LINE
 8
0
 6
CONTINUOUS
 62
7
 10
-141.715182
 20
-121.601019
 30
0.000000
 11
-141.759740
 21
-121.601026
 31
0.000000
 0
LINE
 8
0
 6
CONTINUOUS
 62
7
 10
-140.972301
 20
-121.600898
 30
0.000000
 11
-141.065182
 21
-121.600913
 31
0.000000
 0
LINE
 8
0
 6
CONTINUOUS
 62
7
 10
-140.972365
 20
-120.800898
 30
0.000000
 11
-141.065182
 21
-120.800898
 31
0.000000
 0
LINE
 8
0
 6
CONTINUOUS
 62
7
 10
-148.396532
 20
-122.490499
 30
0.000000
 11
-148.359747
 21
-122.490546
 31
0.000000
 0
LINE
 8
0
 6
CONTINUOUS
 62
7
 10
-148.359747
 20
-119.912445
 30
0.000000
 11
-148.396740
 21
-119.912499
 31
0.000000
 0
LINE
 8
0
 6
CONTINUOUS
 62
7
 10
-141.715182
 20
-121.164046
 30
0.000000
 11
-141.715182
 21
-121.200898
 31
0.000000
 0
LINE
 8
0
 6
CONTINUOUS
 62
7
 10
-141.715182
 20
-121.200898
 30
0.000000
 11
-141.715182
 21
-121.237871
 31
0.000000
 0
LINE
 8
0
 6
CONTINUOUS
 62
7
 10
-146.791033
 20
-84.999535
 30
0.000000
 11
-146.859747
 21
-84.999535
 31
0.000000
 0
LINE
 8
0
 6
CONTINUOUS
 62
7
 10
-146.007325
 20
-84.999535
 30
0.000000
 11
-146.496178
 21
-84.999535
 31
0.000000
 0
LINE
 8
0
 6
CONTINUOUS
 62
7
 10
-146.496178
 20
-84.999535
 30
0.000000
 11
-146.791033
 21
-84.999535
 31
0.000000
 0
LINE
 8
0
 6
CONTINUOUS
 62
7
 10
-143.259747
 20
-84.999535
 30
0.000000
 11
-143.328461
 21
-84.999535
 31
0.000000
 0
LINE
 8
0
 6
CONTINUOUS
 62
7
 10
-143.328461
 20
-84.999535
 30
0.000000
 11
-143.623316
 21
-84.999535
 31
0.000000
 0
LINE
 8
0
 6
CONTINUOUS
 62
7
 10
-143.623316
 20
-84.999535
 30
0.000000
 11
-144.112169
 21
-84.999535
 31
0.000000
 0
LINE
 8
0
 6
CONTINUOUS
 62
7
 10
-144.112169
 20
-84.999535
 30
0.000000
 11
-144.728998
 21
-84.999535
 31
0.000000
 0
LINE
 8
0
 6
CONTINUOUS
 62
7
 10
-144.728998
 20
-84.999535
 30
0.000000
 11
-145.390496
 21
-84.999535
 31
0.000000
 0
LINE
 8
0
 6
CONTINUOUS
 62
7
 10
-145.390496
 20
-84.999535
 30
0.000000
 11
-146.007325
 21
-84.999535
 31
0.000000
 0
LINE
 8
0
 6
CONTINUOUS
 62
7
 10
-151.559747
 20
-84.999535
 30
0.000000
 11
-138.559747
 21
-84.999535
 31
0.000000
 0
LINE
 8
0
 6
CONTINUOUS
 62
7
 10
-138.559747
 20
-84.999535
 30
0.000000
 11
-138.559747
 21
-85.000000
 31
0.000000
 0
LINE
 8
0
 6
CONTINUOUS
 62
7
 10
-151.559747
 20
-85.000000
 30
0.000000
 11
-151.559747
 21
-84.999535
 31
0.000000
 0
ENDSEC
 0
EOF
